  0
SECTION
  2
HEADER
  9
$ACADVER
  1
AC1032
  9
$ACADMAINTVER
 90
       55
  9
$DWGCODEPAGE
  3
ISO8859-1
  9
$LASTSAVEDBY
  1
zink
  9
$REQUIREDVERSIONS
160
                 0
  9
$INSBASE
 10
0.0
 20
0.0
 30
0.0
  9
$EXTMIN
 10
1.000000000000000E+20
 20
1.000000000000000E+20
 30
1.000000000000000E+20
  9
$EXTMAX
 10
-1.000000000000000E+20
 20
-1.000000000000000E+20
 30
-1.000000000000000E+20
  9
$LIMMIN
 10
0.0
 20
0.0
  9
$LIMMAX
 10
420.0
 20
297.0
  9
$ORTHOMODE
 70
     0
  9
$REGENMODE
 70
     1
  9
$FILLMODE
 70
     1
  9
$QTEXTMODE
 70
     0
  9
$MIRRTEXT
 70
     1
  9
$LTSCALE
 40
1.0
  9
$ATTMODE
 70
     1
  9
$TEXTSIZE
 40
2.5
  9
$TRACEWID
 40
1.0
  9
$TEXTSTYLE
  7
Standard
  9
$CLAYER
  8
0
  9
$CELTYPE
  6
ByLayer
  9
$CECOLOR
 62
   256
  9
$CELTSCALE
 40
1.0
  9
$DISPSILH
 70
     0
  9
$DIMSCALE
 40
1.0
  9
$DIMASZ
 40
2.5
  9
$DIMEXO
 40
0.625
  9
$DIMDLI
 40
3.75
  9
$DIMRND
 40
0.0
  9
$DIMDLE
 40
0.0
  9
$DIMEXE
 40
1.25
  9
$DIMTP
 40
0.0
  9
$DIMTM
 40
0.0
  9
$DIMTXT
 40
2.5
  9
$DIMCEN
 40
2.5
  9
$DIMTSZ
 40
0.0
  9
$DIMTOL
 70
     0
  9
$DIMLIM
 70
     0
  9
$DIMTIH
 70
     0
  9
$DIMTOH
 70
     0
  9
$DIMSE1
 70
     0
  9
$DIMSE2
 70
     0
  9
$DIMTAD
 70
     1
  9
$DIMZIN
 70
     8
  9
$DIMBLK
  1

  9
$DIMASO
 70
     1
  9
$DIMSHO
 70
     1
  9
$DIMPOST
  1

  9
$DIMAPOST
  1

  9
$DIMALT
 70
     0
  9
$DIMALTD
 70
     3
  9
$DIMALTF
 40
0.03937007874016
  9
$DIMLFAC
 40
1.0
  9
$DIMTOFL
 70
     1
  9
$DIMTVP
 40
0.0
  9
$DIMTIX
 70
     0
  9
$DIMSOXD
 70
     0
  9
$DIMSAH
 70
     0
  9
$DIMBLK1
  1

  9
$DIMBLK2
  1

  9
$DIMSTYLE
  2
ISO-25
  9
$DIMCLRD
 70
     0
  9
$DIMCLRE
 70
     0
  9
$DIMCLRT
 70
     0
  9
$DIMTFAC
 40
1.0
  9
$DIMGAP
 40
0.625
  9
$DIMJUST
 70
     0
  9
$DIMSD1
 70
     0
  9
$DIMSD2
 70
     0
  9
$DIMTOLJ
 70
     0
  9
$DIMTZIN
 70
     8
  9
$DIMALTZ
 70
     0
  9
$DIMALTTZ
 70
     0
  9
$DIMUPT
 70
     0
  9
$DIMDEC
 70
     2
  9
$DIMTDEC
 70
     2
  9
$DIMALTU
 70
     2
  9
$DIMALTTD
 70
     3
  9
$DIMTXSTY
  7
Standard
  9
$DIMAUNIT
 70
     0
  9
$DIMADEC
 70
     0
  9
$DIMALTRND
 40
0.0
  9
$DIMAZIN
 70
     0
  9
$DIMDSEP
 70
    44
  9
$DIMATFIT
 70
     3
  9
$DIMFRAC
 70
     0
  9
$DIMLDRBLK
  1

  9
$DIMLUNIT
 70
     2
  9
$DIMLWD
 70
    -2
  9
$DIMLWE
 70
    -2
  9
$DIMTMOVE
 70
     0
  9
$DIMFXL
 40
1.0
  9
$DIMFXLON
 70
     0
  9
$DIMJOGANG
 40
0.7853981633974483
  9
$DIMTFILL
 70
     0
  9
$DIMTFILLCLR
 70
     0
  9
$DIMARCSYM
 70
     0
  9
$DIMLTYPE
  6

  9
$DIMLTEX1
  6

  9
$DIMLTEX2
  6

  9
$DIMTXTDIRECTION
 70
     0
  9
$LUNITS
 70
     2
  9
$LUPREC
 70
     4
  9
$SKETCHINC
 40
1.0
  9
$FILLETRAD
 40
0.0
  9
$AUNITS
 70
     0
  9
$AUPREC
 70
     0
  9
$MENU
  1
.
  9
$ELEVATION
 40
0.0
  9
$PELEVATION
 40
0.0
  9
$THICKNESS
 40
0.0
  9
$LIMCHECK
 70
     0
  9
$CHAMFERA
 40
0.0
  9
$CHAMFERB
 40
0.0
  9
$CHAMFERC
 40
0.0
  9
$CHAMFERD
 40
0.0
  9
$SKPOLY
 70
     0
  9
$TDCREATE
 40
2460744.671242639
  9
$TDUCREATE
 40
2460744.629575972
  9
$TDUPDATE
 40
2460744.671242708
  9
$TDUUPDATE
 40
2460744.629576042
  9
$TDINDWG
 40
0.0000000116
  9
$TDUSRTIMER
 40
0.0000000116
  9
$USRTIMER
 70
     1
  9
$ANGBASE
 50
0.0
  9
$ANGDIR
 70
     0
  9
$PDMODE
 70
     0
  9
$PDSIZE
 40
0.0
  9
$PLINEWID
 40
0.0
  9
$SPLFRAME
 70
     0
  9
$SPLINETYPE
 70
     6
  9
$SPLINESEGS
 70
     8
  9
$HANDSEED
  5
23B
  9
$SURFTAB1
 70
     6
  9
$SURFTAB2
 70
     6
  9
$SURFTYPE
 70
     6
  9
$SURFU
 70
     6
  9
$SURFV
 70
     6
  9
$UCSBASE
  2

  9
$UCSNAME
  2

  9
$UCSORG
 10
0.0
 20
0.0
 30
0.0
  9
$UCSXDIR
 10
1.0
 20
0.0
 30
0.0
  9
$UCSYDIR
 10
0.0
 20
1.0
 30
0.0
  9
$UCSORTHOREF
  2

  9
$UCSORTHOVIEW
 70
     0
  9
$UCSORGTOP
 10
0.0
 20
0.0
 30
0.0
  9
$UCSORGBOTTOM
 10
0.0
 20
0.0
 30
0.0
  9
$UCSORGLEFT
 10
0.0
 20
0.0
 30
0.0
  9
$UCSORGRIGHT
 10
0.0
 20
0.0
 30
0.0
  9
$UCSORGFRONT
 10
0.0
 20
0.0
 30
0.0
  9
$UCSORGBACK
 10
0.0
 20
0.0
 30
0.0
  9
$PUCSBASE
  2

  9
$PUCSNAME
  2

  9
$PUCSORG
 10
0.0
 20
0.0
 30
0.0
  9
$PUCSXDIR
 10
1.0
 20
0.0
 30
0.0
  9
$PUCSYDIR
 10
0.0
 20
1.0
 30
0.0
  9
$PUCSORTHOREF
  2

  9
$PUCSORTHOVIEW
 70
     0
  9
$PUCSORGTOP
 10
0.0
 20
0.0
 30
0.0
  9
$PUCSORGBOTTOM
 10
0.0
 20
0.0
 30
0.0
  9
$PUCSORGLEFT
 10
0.0
 20
0.0
 30
0.0
  9
$PUCSORGRIGHT
 10
0.0
 20
0.0
 30
0.0
  9
$PUCSORGFRONT
 10
0.0
 20
0.0
 30
0.0
  9
$PUCSORGBACK
 10
0.0
 20
0.0
 30
0.0
  9
$USERI1
 70
     0
  9
$USERI2
 70
     0
  9
$USERI3
 70
     0
  9
$USERI4
 70
     0
  9
$USERI5
 70
     0
  9
$USERR1
 40
0.0
  9
$USERR2
 40
0.0
  9
$USERR3
 40
0.0
  9
$USERR4
 40
0.0
  9
$USERR5
 40
0.0
  9
$WORLDVIEW
 70
     1
  9
$SHADEDGE
 70
     3
  9
$SHADEDIF
 70
    70
  9
$TILEMODE
 70
     1
  9
$MAXACTVP
 70
    64
  9
$PINSBASE
 10
0.0
 20
0.0
 30
0.0
  9
$PLIMCHECK
 70
     0
  9
$PEXTMIN
 10
55.24999199999999
 20
65.249997
 30
0.0
  9
$PEXTMAX
 10
0.0
 20
0.0
 30
0.0
  9
$PLIMMIN
 10
-20.0
 20
-7.5
  9
$PLIMMAX
 10
277.0
 20
202.5
  9
$UNITMODE
 70
     0
  9
$VISRETAIN
 70
     1
  9
$PLINEGEN
 70
     0
  9
$PSLTSCALE
 70
     1
  9
$TREEDEPTH
 70
  3020
  9
$CMLSTYLE
  2
Standard
  9
$CMLJUST
 70
     0
  9
$CMLSCALE
 40
20.0
  9
$PROXYGRAPHICS
 70
     1
  9
$MEASUREMENT
 70
     1
  9
$CELWEIGHT
370
    -1
  9
$ENDCAPS
280
     0
  9
$JOINSTYLE
280
     0
  9
$LWDISPLAY
290
     0
  9
$INSUNITS
 70
     4
  9
$HYPERLINKBASE
  1

  9
$STYLESHEET
  1

  9
$XEDIT
290
     1
  9
$CEPSNTYPE
380
     0
  9
$PSTYLEMODE
290
     1
  9
$FINGERPRINTGUID
  2
{b8e6427e-bc5e-634f-be72-d2821829244e}
  9
$VERSIONGUID
  2
{FAEB1C32-E019-11D5-929B-00C0DF256EC4}
  9
$EXTNAMES
290
     1
  9
$PSVPSCALE
 40
0.0
  9
$OLESTARTUP
290
     0
  9
$SORTENTS
280
   127
  9
$INDEXCTL
280
     0
  9
$HIDETEXT
280
     1
  9
$XCLIPFRAME
280
     2
  9
$HALOGAP
280
     0
  9
$OBSCOLOR
 70
   257
  9
$OBSLTYPE
280
     0
  9
$INTERSECTIONDISPLAY
280
     0
  9
$INTERSECTIONCOLOR
 70
   257
  9
$DIMASSOC
280
     2
  9
$PROJECTNAME
  1

  9
$CAMERADISPLAY
290
     0
  9
$LENSLENGTH
 40
50.0
  9
$CAMERAHEIGHT
 40
0.0
  9
$STEPSPERSEC
 40
2.0
  9
$STEPSIZE
 40
6.0
  9
$3DDWFPREC
 40
2.0
  9
$PSOLWIDTH
 40
5.0
  9
$PSOLHEIGHT
 40
80.0
  9
$LOFTANG1
 40
1.570796326794897
  9
$LOFTANG2
 40
1.570796326794897
  9
$LOFTMAG1
 40
0.0
  9
$LOFTMAG2
 40
0.0
  9
$LOFTPARAM
 70
     7
  9
$LOFTNORMALS
280
     1
  9
$LATITUDE
 40
37.795
  9
$LONGITUDE
 40
-122.394
  9
$NORTHDIRECTION
 40
0.0
  9
$TIMEZONE
 70
 -8000
  9
$LIGHTGLYPHDISPLAY
280
     1
  9
$TILEMODELIGHTSYNCH
280
     1
  9
$CMATERIAL
347
44
  9
$SOLIDHIST
280
     0
  9
$SHOWHIST
280
     1
  9
$DWFFRAME
280
     2
  9
$DGNFRAME
280
     2
  9
$REALWORLDSCALE
290
     1
  9
$INTERFERECOLOR
 62
   256
  9
$CSHADOW
280
     0
  9
$SHADOWPLANELOCATION
 40
0.0
  0
ENDSEC
  0
SECTION
  2
CLASSES
  0
CLASS
  1
ACDBDICTIONARYWDFLT
  2
AcDbDictionaryWithDefault
  3
ObjectDBX Classes
 90
        0
 91
        3
280
     0
281
     0
  0
CLASS
  1
VISUALSTYLE
  2
AcDbVisualStyle
  3
ObjectDBX Classes
 90
     4095
 91
        3
280
     0
281
     0
  0
CLASS
  1
MATERIAL
  2
AcDbMaterial
  3
ObjectDBX Classes
 90
     1153
 91
        3
280
     0
281
     0
  0
CLASS
  1
SCALE
  2
AcDbScale
  3
ObjectDBX Classes
 90
     1153
 91
        3
280
     0
281
     0
  0
CLASS
  1
TABLESTYLE
  2
AcDbTableStyle
  3
ObjectDBX Classes
 90
     4095
 91
        3
280
     0
281
     0
  0
CLASS
  1
MLEADERSTYLE
  2
AcDbMLeaderStyle
  3
ACDB_MLEADERSTYLE_CLASS
 90
     4095
 91
        3
280
     0
281
     0
  0
CLASS
  1
SUN
  2
AcDbSun
  3
SCENEOE
 90
     1153
 91
        3
280
     0
281
     0
  0
CLASS
  1
DICTIONARYVAR
  2
AcDbDictionaryVar
  3
ObjectDBX Classes
 90
        0
 91
        3
280
     0
281
     0
  0
CLASS
  1
CELLSTYLEMAP
  2
AcDbCellStyleMap
  3
ObjectDBX Classes
 90
     1152
 91
        3
280
     0
281
     0
  0
ENDSEC
  0
SECTION
  2
TABLES
  0
TABLE
  2
VPORT
  5
8
330
0
100
AcDbSymbolTable
 70
     1
  0
VPORT
  5
29
330
8
100
AcDbSymbolTableRecord
100
AcDbViewportTableRecord
  2
*Active
 70
     0
 10
0.0
 20
0.0
 11
1.0
 21
1.0
 12
31.11953340013618
 22
32.6249985
 13
0.0
 23
0.0
 14
10.0
 24
10.0
 15
10.0
 25
10.0
 16
0.0
 26
0.0
 36
1.0
 17
0.0
 27
0.0
 37
0.0
 40
65.249997
 41
1.972972972850329
 42
50.0
 43
0.0
 44
0.0
 50
0.0
 51
0.0
 71
     0
 72
   100
 73
     1
 74
     3
 75
     0
 76
     0
 77
     0
 78
     0
281
     0
 65
     1
110
0.0
120
0.0
130
0.0
111
1.0
121
0.0
131
0.0
112
0.0
122
1.0
132
0.0
 79
     0
146
0.0
348
2F
 60
     3
 61
     5
292
     1
282
     1
141
0.0
142
0.0
 63
   250
361
5D
  0
ENDTAB
  0
TABLE
  2
LTYPE
  5
5
330
0
100
AcDbSymbolTable
 70
     1
  0
LTYPE
  5
14
330
5
100
AcDbSymbolTableRecord
100
AcDbLinetypeTableRecord
  2
ByBlock
 70
     0
  3

 72
    65
 73
     0
 40
0.0
  0
LTYPE
  5
15
330
5
100
AcDbSymbolTableRecord
100
AcDbLinetypeTableRecord
  2
ByLayer
 70
     0
  3

 72
    65
 73
     0
 40
0.0
  0
LTYPE
  5
16
330
5
100
AcDbSymbolTableRecord
100
AcDbLinetypeTableRecord
  2
Continuous
 70
     0
  3
Solid line
 72
    65
 73
     0
 40
0.0
  0
ENDTAB
  0
TABLE
  2
LAYER
  5
2
330
0
100
AcDbSymbolTable
 70
     1
  0
LAYER
  5
10
330
2
100
AcDbSymbolTableRecord
100
AcDbLayerTableRecord
  2
0
 70
     0
 62
     7
  6
Continuous
370
    -3
390
F
347
46
348
0
  0
ENDTAB
  0
TABLE
  2
STYLE
  5
3
330
0
100
AcDbSymbolTable
 70
     1
  0
STYLE
  5
11
330
3
100
AcDbSymbolTableRecord
100
AcDbTextStyleTableRecord
  2
Standard
 70
     0
 40
0.0
 41
1.0
 50
0.0
 71
     0
 42
2.5
  3
txt
  4

  0
ENDTAB
  0
TABLE
  2
VIEW
  5
6
330
0
100
AcDbSymbolTable
 70
     0
  0
ENDTAB
  0
TABLE
  2
UCS
  5
7
330
0
100
AcDbSymbolTable
 70
     0
  0
ENDTAB
  0
TABLE
  2
APPID
  5
9
330
0
100
AcDbSymbolTable
 70
     1
  0
APPID
  5
12
330
9
100
AcDbSymbolTableRecord
100
AcDbRegAppTableRecord
  2
ACAD
 70
     0
  0
ENDTAB
  0
TABLE
  2
DIMSTYLE
  5
A
330
0
100
AcDbSymbolTable
 70
     1
100
AcDbDimStyleTable
  0
DIMSTYLE
105
27
330
A
100
AcDbSymbolTableRecord
100
AcDbDimStyleTableRecord
  2
ISO-25
 70
     0
 41
2.5
 42
0.625
 43
3.75
 44
1.25
 73
     0
 74
     0
 77
     1
 78
     8
140
2.5
141
2.5
143
0.03937007874016
147
0.625
171
     3
172
     1
178
     0
271
     2
272
     2
274
     3
278
    44
283
     0
284
     8
340
11
  0
ENDTAB
  0
TABLE
  2
BLOCK_RECORD
  5
1
330
0
100
AcDbSymbolTable
 70
     0
  0
BLOCK_RECORD
  5
1F
330
1
100
AcDbSymbolTableRecord
100
AcDbBlockTableRecord
  2
*Model_Space
340
22
 70
     0
280
     1
281
     0
  0
BLOCK_RECORD
  5
228
330
1
100
AcDbSymbolTableRecord
100
AcDbBlockTableRecord
  2
*Paper_Space
340
229
 70
     0
280
     1
281
     0
  0
ENDTAB
  0
ENDSEC
  0
SECTION
  2
BLOCKS
  0
BLOCK
  5
20
330
1F
100
AcDbEntity
  8
0
100
AcDbBlockBegin
  2
*Model_Space
 70
     0
 10
0.0
 20
0.0
 30
0.0
  3
*Model_Space
  1

  0
ENDBLK
  5
21
330
1F
100
AcDbEntity
  8
0
100
AcDbBlockEnd
  0
BLOCK
  5
22A
330
228
100
AcDbEntity
 67
     1
  8
0
100
AcDbBlockBegin
  2
*Paper_Space
 70
     0
 10
0.0
 20
0.0
 30
0.0
  3
*Paper_Space
  1

  0
ENDBLK
  5
22B
330
228
100
AcDbEntity
 67
     1
  8
0
100
AcDbBlockEnd
  0
ENDSEC
  0
SECTION
  2
ENTITIES
  0
LWPOLYLINE
  5
5E
330
1F
100
AcDbEntity
  8
0
  6
Continuous
 62
     1
420
 16711680
370
    25
100
AcDbPolyline
 90
        5
 70
     1
 43
0.0
 10
8.159736400136183
 20
57.496818
 10
8.159736400136183
 20
57.85241800000001
 10
7.499336400136182
 20
57.85241800000001
 10
7.499336400136182
 20
57.496818
 10
8.159736400136183
 20
57.496818
  0
LWPOLYLINE
  5
5F
330
1F
100
AcDbEntity
  8
0
  6
Continuous
 62
     1
420
 16711680
370
    25
100
AcDbPolyline
 90
        5
 70
     1
 43
0.0
 10
5.449759400136182
 20
57.496818
 10
5.449759400136182
 20
57.85241800000001
 10
4.789359400136182
 20
57.85241800000001
 10
4.789359400136182
 20
57.496818
 10
5.449759400136182
 20
57.496818
  0
LWPOLYLINE
  5
60
330
1F
100
AcDbEntity
  8
0
  6
Continuous
 62
     1
420
 16711680
370
    25
100
AcDbPolyline
 90
        5
 70
     1
 43
0.0
 10
5.449759400136182
 20
57.08531300000001
 10
5.449759400136182
 20
57.31391300000001
 10
4.789359400136182
 20
57.31391300000001
 10
4.789359400136182
 20
57.08531300000001
 10
5.449759400136182
 20
57.08531300000001
  0
LWPOLYLINE
  5
61
330
1F
100
AcDbEntity
  8
0
  6
Continuous
 62
     1
420
 16711680
370
    25
100
AcDbPolyline
 90
        5
 70
     1
 43
0.0
 10
5.449759400136182
 20
56.68531400000001
 10
5.449759400136182
 20
56.913914
 10
4.789359400136182
 20
56.913914
 10
4.789359400136182
 20
56.68531400000001
 10
5.449759400136182
 20
56.68531400000001
  0
LWPOLYLINE
  5
62
330
1F
100
AcDbEntity
  8
0
  6
Continuous
 62
     1
420
 16711680
370
    25
100
AcDbPolyline
 90
        5
 70
     1
 43
0.0
 10
5.449759400136182
 20
56.285314
 10
5.449759400136182
 20
56.51391400000001
 10
4.789359400136182
 20
56.51391400000001
 10
4.789359400136182
 20
56.285314
 10
5.449759400136182
 20
56.285314
  0
LWPOLYLINE
  5
63
330
1F
100
AcDbEntity
  8
0
  6
Continuous
 62
     1
420
 16711680
370
    25
100
AcDbPolyline
 90
        5
 70
     1
 43
0.0
 10
5.449759400136182
 20
55.88531500000001
 10
5.449759400136182
 20
56.113915
 10
4.789359400136182
 20
56.113915
 10
4.789359400136182
 20
55.88531500000001
 10
5.449759400136182
 20
55.88531500000001
  0
LWPOLYLINE
  5
64
330
1F
100
AcDbEntity
  8
0
  6
Continuous
 62
     1
420
 16711680
370
    25
100
AcDbPolyline
 90
        5
 70
     1
 43
0.0
 10
5.449759400136182
 20
55.485316
 10
5.449759400136182
 20
55.713916
 10
4.789359400136182
 20
55.713916
 10
4.789359400136182
 20
55.485316
 10
5.449759400136182
 20
55.485316
  0
LWPOLYLINE
  5
65
330
1F
100
AcDbEntity
  8
0
  6
Continuous
 62
     1
420
 16711680
370
    25
100
AcDbPolyline
 90
        5
 70
     1
 43
0.0
 10
5.449759400136182
 20
55.085317
 10
5.449759400136182
 20
55.313917
 10
4.789359400136182
 20
55.313917
 10
4.789359400136182
 20
55.085317
 10
5.449759400136182
 20
55.085317
  0
LWPOLYLINE
  5
66
330
1F
100
AcDbEntity
  8
0
  6
Continuous
 62
     1
420
 16711680
370
    25
100
AcDbPolyline
 90
        5
 70
     1
 43
0.0
 10
5.449759400136182
 20
54.68531800000001
 10
5.449759400136182
 20
54.913918
 10
4.789359400136182
 20
54.913918
 10
4.789359400136182
 20
54.68531800000001
 10
5.449759400136182
 20
54.68531800000001
  0
LWPOLYLINE
  5
67
330
1F
100
AcDbEntity
  8
0
  6
Continuous
 62
     1
420
 16711680
370
    25
100
AcDbPolyline
 90
        5
 70
     1
 43
0.0
 10
5.449759400136182
 20
54.285318
 10
5.449759400136182
 20
54.513918
 10
4.789359400136182
 20
54.513918
 10
4.789359400136182
 20
54.285318
 10
5.449759400136182
 20
54.285318
  0
LWPOLYLINE
  5
68
330
1F
100
AcDbEntity
  8
0
  6
Continuous
 62
     1
420
 16711680
370
    25
100
AcDbPolyline
 90
        5
 70
     1
 43
0.0
 10
5.449759400136182
 20
53.88531900000001
 10
5.449759400136182
 20
54.11391900000001
 10
4.789359400136182
 20
54.11391900000001
 10
4.789359400136182
 20
53.88531900000001
 10
5.449759400136182
 20
53.88531900000001
  0
LWPOLYLINE
  5
69
330
1F
100
AcDbEntity
  8
0
  6
Continuous
 62
     1
420
 16711680
370
    25
100
AcDbPolyline
 90
        5
 70
     1
 43
0.0
 10
5.449759400136182
 20
53.48529500000001
 10
5.449759400136182
 20
53.71389500000001
 10
4.789359400136182
 20
53.71389500000001
 10
4.789359400136182
 20
53.48529500000001
 10
5.449759400136182
 20
53.48529500000001
  0
LWPOLYLINE
  5
6A
330
1F
100
AcDbEntity
  8
0
  6
Continuous
 62
     1
420
 16711680
370
    25
100
AcDbPolyline
 90
        5
 70
     1
 43
0.0
 10
5.449759400136182
 20
53.08529500000001
 10
5.449759400136182
 20
53.31389500000001
 10
4.789359400136182
 20
53.31389500000001
 10
4.789359400136182
 20
53.08529500000001
 10
5.449759400136182
 20
53.08529500000001
  0
LWPOLYLINE
  5
6B
330
1F
100
AcDbEntity
  8
0
  6
Continuous
 62
     1
420
 16711680
370
    25
100
AcDbPolyline
 90
        5
 70
     1
 43
0.0
 10
5.449759400136182
 20
52.685296
 10
5.449759400136182
 20
52.91389600000001
 10
4.789359400136182
 20
52.91389600000001
 10
4.789359400136182
 20
52.685296
 10
5.449759400136182
 20
52.685296
  0
LWPOLYLINE
  5
6C
330
1F
100
AcDbEntity
  8
0
  6
Continuous
 62
     1
420
 16711680
370
    25
100
AcDbPolyline
 90
        5
 70
     1
 43
0.0
 10
5.449759400136182
 20
52.285297
 10
5.449759400136182
 20
52.513897
 10
4.789359400136182
 20
52.513897
 10
4.789359400136182
 20
52.285297
 10
5.449759400136182
 20
52.285297
  0
LWPOLYLINE
  5
6D
330
1F
100
AcDbEntity
  8
0
  6
Continuous
 62
     1
420
 16711680
370
    25
100
AcDbPolyline
 90
        5
 70
     1
 43
0.0
 10
5.449759400136182
 20
51.88529800000001
 10
5.449759400136182
 20
52.11389800000001
 10
4.789359400136182
 20
52.11389800000001
 10
4.789359400136182
 20
51.88529800000001
 10
5.449759400136182
 20
51.88529800000001
  0
LWPOLYLINE
  5
6E
330
1F
100
AcDbEntity
  8
0
  6
Continuous
 62
     1
420
 16711680
370
    25
100
AcDbPolyline
 90
        5
 70
     1
 43
0.0
 10
5.449759400136182
 20
51.485299
 10
5.449759400136182
 20
51.713899
 10
4.789359400136182
 20
51.713899
 10
4.789359400136182
 20
51.485299
 10
5.449759400136182
 20
51.485299
  0
LWPOLYLINE
  5
6F
330
1F
100
AcDbEntity
  8
0
  6
Continuous
 62
     1
420
 16711680
370
    25
100
AcDbPolyline
 90
        5
 70
     1
 43
0.0
 10
5.449759400136182
 20
51.08529900000001
 10
5.449759400136182
 20
51.31389900000001
 10
4.789359400136182
 20
51.31389900000001
 10
4.789359400136182
 20
51.08529900000001
 10
5.449759400136182
 20
51.08529900000001
  0
LWPOLYLINE
  5
70
330
1F
100
AcDbEntity
  8
0
  6
Continuous
 62
     1
420
 16711680
370
    25
100
AcDbPolyline
 90
        5
 70
     1
 43
0.0
 10
5.449759400136182
 20
50.68530000000001
 10
5.449759400136182
 20
50.91390000000001
 10
4.789359400136182
 20
50.91390000000001
 10
4.789359400136182
 20
50.68530000000001
 10
5.449759400136182
 20
50.68530000000001
  0
LWPOLYLINE
  5
71
330
1F
100
AcDbEntity
  8
0
  6
Continuous
 62
     1
420
 16711680
370
    25
100
AcDbPolyline
 90
        5
 70
     1
 43
0.0
 10
5.449759400136182
 20
50.285301
 10
5.449759400136182
 20
50.513901
 10
4.789359400136182
 20
50.513901
 10
4.789359400136182
 20
50.285301
 10
5.449759400136182
 20
50.285301
  0
LWPOLYLINE
  5
72
330
1F
100
AcDbEntity
  8
0
  6
Continuous
 62
     1
420
 16711680
370
    25
100
AcDbPolyline
 90
        5
 70
     1
 43
0.0
 10
5.449759400136182
 20
49.88530200000001
 10
5.449759400136182
 20
50.11390200000001
 10
4.789359400136182
 20
50.11390200000001
 10
4.789359400136182
 20
49.88530200000001
 10
5.449759400136182
 20
49.88530200000001
  0
LWPOLYLINE
  5
73
330
1F
100
AcDbEntity
  8
0
  6
Continuous
 62
     1
420
 16711680
370
    25
100
AcDbPolyline
 90
        5
 70
     1
 43
0.0
 10
5.449759400136182
 20
49.48530300000002
 10
5.449759400136182
 20
49.71390300000001
 10
4.789359400136182
 20
49.71390300000001
 10
4.789359400136182
 20
49.48530300000002
 10
5.449759400136182
 20
49.48530300000002
  0
LWPOLYLINE
  5
74
330
1F
100
AcDbEntity
  8
0
  6
Continuous
 62
     1
420
 16711680
370
    25
100
AcDbPolyline
 90
        5
 70
     1
 43
0.0
 10
5.449759400136182
 20
49.08530300000001
 10
5.449759400136182
 20
49.31390300000001
 10
4.789359400136182
 20
49.31390300000001
 10
4.789359400136182
 20
49.08530300000001
 10
5.449759400136182
 20
49.08530300000001
  0
LWPOLYLINE
  5
75
330
1F
100
AcDbEntity
  8
0
  6
Continuous
 62
     1
420
 16711680
370
    25
100
AcDbPolyline
 90
        5
 70
     1
 43
0.0
 10
5.449759400136182
 20
48.685304
 10
5.449759400136182
 20
48.91390400000002
 10
4.789359400136182
 20
48.91390400000002
 10
4.789359400136182
 20
48.685304
 10
5.449759400136182
 20
48.685304
  0
LWPOLYLINE
  5
76
330
1F
100
AcDbEntity
  8
0
  6
Continuous
 62
     1
420
 16711680
370
    25
100
AcDbPolyline
 90
        5
 70
     1
 43
0.0
 10
5.449759400136182
 20
48.28530500000001
 10
5.449759400136182
 20
48.513905
 10
4.789359400136182
 20
48.513905
 10
4.789359400136182
 20
48.28530500000001
 10
5.449759400136182
 20
48.28530500000001
  0
LWPOLYLINE
  5
77
330
1F
100
AcDbEntity
  8
0
  6
Continuous
 62
     1
420
 16711680
370
    25
100
AcDbPolyline
 90
        5
 70
     1
 43
0.0
 10
5.449759400136182
 20
47.885306
 10
5.449759400136182
 20
48.113906
 10
4.789359400136182
 20
48.113906
 10
4.789359400136182
 20
47.885306
 10
5.449759400136182
 20
47.885306
  0
LWPOLYLINE
  5
78
330
1F
100
AcDbEntity
  8
0
  6
Continuous
 62
     1
420
 16711680
370
    25
100
AcDbPolyline
 90
        5
 70
     1
 43
0.0
 10
5.449759400136182
 20
47.48530700000001
 10
5.449759400136182
 20
47.71390700000001
 10
4.789359400136182
 20
47.71390700000001
 10
4.789359400136182
 20
47.48530700000001
 10
5.449759400136182
 20
47.48530700000001
  0
LWPOLYLINE
  5
79
330
1F
100
AcDbEntity
  8
0
  6
Continuous
 62
     1
420
 16711680
370
    25
100
AcDbPolyline
 90
        5
 70
     1
 43
0.0
 10
5.449759400136182
 20
47.08530700000001
 10
5.449759400136182
 20
47.313907
 10
4.789359400136182
 20
47.313907
 10
4.789359400136182
 20
47.08530700000001
 10
5.449759400136182
 20
47.08530700000001
  0
LWPOLYLINE
  5
7A
330
1F
100
AcDbEntity
  8
0
  6
Continuous
 62
     1
420
 16711680
370
    25
100
AcDbPolyline
 90
        5
 70
     1
 43
0.0
 10
5.449759400136182
 20
46.68530800000001
 10
5.449759400136182
 20
46.91390800000001
 10
4.789359400136182
 20
46.91390800000001
 10
4.789359400136182
 20
46.68530800000001
 10
5.449759400136182
 20
46.68530800000001
  0
LWPOLYLINE
  5
7B
330
1F
100
AcDbEntity
  8
0
  6
Continuous
 62
     1
420
 16711680
370
    25
100
AcDbPolyline
 90
        5
 70
     1
 43
0.0
 10
5.449759400136182
 20
46.285309
 10
5.449759400136182
 20
46.51390900000001
 10
4.789359400136182
 20
46.51390900000001
 10
4.789359400136182
 20
46.285309
 10
5.449759400136182
 20
46.285309
  0
LWPOLYLINE
  5
7C
330
1F
100
AcDbEntity
  8
0
  6
Continuous
 62
     1
420
 16711680
370
    25
100
AcDbPolyline
 90
        5
 70
     1
 43
0.0
 10
5.449759400136182
 20
45.88531
 10
5.449759400136182
 20
46.11391
 10
4.789359400136182
 20
46.11391
 10
4.789359400136182
 20
45.88531
 10
5.449759400136182
 20
45.88531
  0
LWPOLYLINE
  5
7D
330
1F
100
AcDbEntity
  8
0
  6
Continuous
 62
     1
420
 16711680
370
    25
100
AcDbPolyline
 90
        5
 70
     1
 43
0.0
 10
5.449759400136182
 20
45.48531100000001
 10
5.449759400136182
 20
45.71391100000001
 10
4.789359400136182
 20
45.71391100000001
 10
4.789359400136182
 20
45.48531100000001
 10
5.449759400136182
 20
45.48531100000001
  0
LWPOLYLINE
  5
7E
330
1F
100
AcDbEntity
  8
0
  6
Continuous
 62
     1
420
 16711680
370
    25
100
AcDbPolyline
 90
        5
 70
     1
 43
0.0
 10
5.449759400136182
 20
45.085311
 10
5.449759400136182
 20
45.313911
 10
4.789359400136182
 20
45.313911
 10
4.789359400136182
 20
45.085311
 10
5.449759400136182
 20
45.085311
  0
LWPOLYLINE
  5
7F
330
1F
100
AcDbEntity
  8
0
  6
Continuous
 62
     1
420
 16711680
370
    25
100
AcDbPolyline
 90
        5
 70
     1
 43
0.0
 10
5.449759400136182
 20
44.68531200000001
 10
5.449759400136182
 20
44.91391200000001
 10
4.789359400136182
 20
44.91391200000001
 10
4.789359400136182
 20
44.68531200000001
 10
5.449759400136182
 20
44.68531200000001
  0
LWPOLYLINE
  5
80
330
1F
100
AcDbEntity
  8
0
  6
Continuous
 62
     1
420
 16711680
370
    25
100
AcDbPolyline
 90
        5
 70
     1
 43
0.0
 10
5.449759400136182
 20
44.28531300000001
 10
5.449759400136182
 20
44.513913
 10
4.789359400136182
 20
44.513913
 10
4.789359400136182
 20
44.28531300000001
 10
5.449759400136182
 20
44.28531300000001
  0
LWPOLYLINE
  5
81
330
1F
100
AcDbEntity
  8
0
  6
Continuous
 62
     1
420
 16711680
370
    25
100
AcDbPolyline
 90
        5
 70
     1
 43
0.0
 10
5.449759400136182
 20
43.88531400000001
 10
5.449759400136182
 20
44.11391400000001
 10
4.789359400136182
 20
44.11391400000001
 10
4.789359400136182
 20
43.88531400000001
 10
5.449759400136182
 20
43.88531400000001
  0
LWPOLYLINE
  5
82
330
1F
100
AcDbEntity
  8
0
  6
Continuous
 62
     1
420
 16711680
370
    25
100
AcDbPolyline
 90
        5
 70
     1
 43
0.0
 10
5.449759400136182
 20
43.48531500000001
 10
5.449759400136182
 20
43.713915
 10
4.789359400136182
 20
43.713915
 10
4.789359400136182
 20
43.48531500000001
 10
5.449759400136182
 20
43.48531500000001
  0
LWPOLYLINE
  5
83
330
1F
100
AcDbEntity
  8
0
  6
Continuous
 62
     1
420
 16711680
370
    25
100
AcDbPolyline
 90
        5
 70
     1
 43
0.0
 10
5.449759400136182
 20
43.08531500000001
 10
5.449759400136182
 20
43.31391500000001
 10
4.789359400136182
 20
43.31391500000001
 10
4.789359400136182
 20
43.08531500000001
 10
5.449759400136182
 20
43.08531500000001
  0
LWPOLYLINE
  5
84
330
1F
100
AcDbEntity
  8
0
  6
Continuous
 62
     1
420
 16711680
370
    25
100
AcDbPolyline
 90
        5
 70
     1
 43
0.0
 10
5.449759400136182
 20
42.68531600000001
 10
5.449759400136182
 20
42.91391600000001
 10
4.789359400136182
 20
42.91391600000001
 10
4.789359400136182
 20
42.68531600000001
 10
5.449759400136182
 20
42.68531600000001
  0
LWPOLYLINE
  5
85
330
1F
100
AcDbEntity
  8
0
  6
Continuous
 62
     1
420
 16711680
370
    25
100
AcDbPolyline
 90
        5
 70
     1
 43
0.0
 10
5.449759400136182
 20
42.28531700000001
 10
5.449759400136182
 20
42.51391700000001
 10
4.789359400136182
 20
42.51391700000001
 10
4.789359400136182
 20
42.28531700000001
 10
5.449759400136182
 20
42.28531700000001
  0
LWPOLYLINE
  5
86
330
1F
100
AcDbEntity
  8
0
  6
Continuous
 62
     1
420
 16711680
370
    25
100
AcDbPolyline
 90
        5
 70
     1
 43
0.0
 10
5.449759400136182
 20
41.88531800000001
 10
5.449759400136182
 20
42.113918
 10
4.789359400136182
 20
42.113918
 10
4.789359400136182
 20
41.88531800000001
 10
5.449759400136182
 20
41.88531800000001
  0
LWPOLYLINE
  5
87
330
1F
100
AcDbEntity
  8
0
  6
Continuous
 62
     1
420
 16711680
370
    25
100
AcDbPolyline
 90
        5
 70
     1
 43
0.0
 10
5.449759400136182
 20
41.485319
 10
5.449759400136182
 20
41.713919
 10
4.789359400136182
 20
41.713919
 10
4.789359400136182
 20
41.485319
 10
5.449759400136182
 20
41.485319
  0
LWPOLYLINE
  5
88
330
1F
100
AcDbEntity
  8
0
  6
Continuous
 62
     1
420
 16711680
370
    25
100
AcDbPolyline
 90
        5
 70
     1
 43
0.0
 10
5.449759400136182
 20
41.085319
 10
5.449759400136182
 20
41.31391900000001
 10
4.789359400136182
 20
41.31391900000001
 10
4.789359400136182
 20
41.085319
 10
5.449759400136182
 20
41.085319
  0
LWPOLYLINE
  5
89
330
1F
100
AcDbEntity
  8
0
  6
Continuous
 62
     1
420
 16711680
370
    25
100
AcDbPolyline
 90
        5
 70
     1
 43
0.0
 10
5.449759400136182
 20
40.68529500000001
 10
5.449759400136182
 20
40.913895
 10
4.789359400136182
 20
40.913895
 10
4.789359400136182
 20
40.68529500000001
 10
5.449759400136182
 20
40.68529500000001
  0
LWPOLYLINE
  5
8A
330
1F
100
AcDbEntity
  8
0
  6
Continuous
 62
     1
420
 16711680
370
    25
100
AcDbPolyline
 90
        5
 70
     1
 43
0.0
 10
5.449759400136182
 20
40.285296
 10
5.449759400136182
 20
40.51389600000001
 10
4.789359400136182
 20
40.51389600000001
 10
4.789359400136182
 20
40.285296
 10
5.449759400136182
 20
40.285296
  0
LWPOLYLINE
  5
8B
330
1F
100
AcDbEntity
  8
0
  6
Continuous
 62
     1
420
 16711680
370
    25
100
AcDbPolyline
 90
        5
 70
     1
 43
0.0
 10
5.449759400136182
 20
39.885296
 10
5.449759400136182
 20
40.113896
 10
4.789359400136182
 20
40.113896
 10
4.789359400136182
 20
39.885296
 10
5.449759400136182
 20
39.885296
  0
LWPOLYLINE
  5
8C
330
1F
100
AcDbEntity
  8
0
  6
Continuous
 62
     1
420
 16711680
370
    25
100
AcDbPolyline
 90
        5
 70
     1
 43
0.0
 10
5.449759400136182
 20
39.485297
 10
5.449759400136182
 20
39.713897
 10
4.789359400136182
 20
39.713897
 10
4.789359400136182
 20
39.485297
 10
5.449759400136182
 20
39.485297
  0
LWPOLYLINE
  5
8D
330
1F
100
AcDbEntity
  8
0
  6
Continuous
 62
     1
420
 16711680
370
    25
100
AcDbPolyline
 90
        5
 70
     1
 43
0.0
 10
5.449759400136182
 20
39.08529800000001
 10
5.449759400136182
 20
39.31389800000001
 10
4.789359400136182
 20
39.31389800000001
 10
4.789359400136182
 20
39.08529800000001
 10
5.449759400136182
 20
39.08529800000001
  0
LWPOLYLINE
  5
8E
330
1F
100
AcDbEntity
  8
0
  6
Continuous
 62
     1
420
 16711680
370
    25
100
AcDbPolyline
 90
        5
 70
     1
 43
0.0
 10
5.449759400136182
 20
38.685299
 10
5.449759400136182
 20
38.91389900000001
 10
4.789359400136182
 20
38.91389900000001
 10
4.789359400136182
 20
38.685299
 10
5.449759400136182
 20
38.685299
  0
LWPOLYLINE
  5
8F
330
1F
100
AcDbEntity
  8
0
  6
Continuous
 62
     1
420
 16711680
370
    25
100
AcDbPolyline
 90
        5
 70
     1
 43
0.0
 10
5.449759400136182
 20
38.28530000000001
 10
5.449759400136182
 20
38.51390000000001
 10
4.789359400136182
 20
38.51390000000001
 10
4.789359400136182
 20
38.28530000000001
 10
5.449759400136182
 20
38.28530000000001
  0
LWPOLYLINE
  5
90
330
1F
100
AcDbEntity
  8
0
  6
Continuous
 62
     1
420
 16711680
370
    25
100
AcDbPolyline
 90
        5
 70
     1
 43
0.0
 10
5.449759400136182
 20
37.88530000000001
 10
5.449759400136182
 20
38.1139
 10
4.789359400136182
 20
38.1139
 10
4.789359400136182
 20
37.88530000000001
 10
5.449759400136182
 20
37.88530000000001
  0
LWPOLYLINE
  5
91
330
1F
100
AcDbEntity
  8
0
  6
Continuous
 62
     1
420
 16711680
370
    25
100
AcDbPolyline
 90
        5
 70
     1
 43
0.0
 10
5.449759400136182
 20
37.48530100000001
 10
5.449759400136182
 20
37.71390100000001
 10
4.789359400136182
 20
37.71390100000001
 10
4.789359400136182
 20
37.48530100000001
 10
5.449759400136182
 20
37.48530100000001
  0
LWPOLYLINE
  5
92
330
1F
100
AcDbEntity
  8
0
  6
Continuous
 62
     1
420
 16711680
370
    25
100
AcDbPolyline
 90
        5
 70
     1
 43
0.0
 10
5.449759400136182
 20
36.94679600000001
 10
5.449759400136182
 20
37.302396
 10
4.789359400136182
 20
37.302396
 10
4.789359400136182
 20
36.94679600000001
 10
5.449759400136182
 20
36.94679600000001
  0
LWPOLYLINE
  5
93
330
1F
100
AcDbEntity
  8
0
  6
Continuous
 62
     1
420
 16711680
370
    25
100
AcDbPolyline
 90
        5
 70
     1
 43
0.0
 10
8.159736400136183
 20
36.94679600000001
 10
8.159736400136183
 20
37.302396
 10
7.499336400136182
 20
37.302396
 10
7.499336400136182
 20
36.94679600000001
 10
8.159736400136183
 20
36.94679600000001
  0
LWPOLYLINE
  5
94
330
1F
100
AcDbEntity
  8
0
  6
Continuous
 62
     1
420
 16711680
370
    25
100
AcDbPolyline
 90
        5
 70
     1
 43
0.0
 10
8.159736400136183
 20
57.08531300000001
 10
8.159736400136183
 20
57.31391300000001
 10
7.499336400136182
 20
57.31391300000001
 10
7.499336400136182
 20
57.08531300000001
 10
8.159736400136183
 20
57.08531300000001
  0
LWPOLYLINE
  5
95
330
1F
100
AcDbEntity
  8
0
  6
Continuous
 62
     1
420
 16711680
370
    25
100
AcDbPolyline
 90
        5
 70
     1
 43
0.0
 10
8.159736400136183
 20
56.68531400000001
 10
8.159736400136183
 20
56.913914
 10
7.499336400136182
 20
56.913914
 10
7.499336400136182
 20
56.68531400000001
 10
8.159736400136183
 20
56.68531400000001
  0
LWPOLYLINE
  5
96
330
1F
100
AcDbEntity
  8
0
  6
Continuous
 62
     1
420
 16711680
370
    25
100
AcDbPolyline
 90
        5
 70
     1
 43
0.0
 10
8.159736400136183
 20
56.285314
 10
8.159736400136183
 20
56.51391400000001
 10
7.499336400136182
 20
56.51391400000001
 10
7.499336400136182
 20
56.285314
 10
8.159736400136183
 20
56.285314
  0
LWPOLYLINE
  5
97
330
1F
100
AcDbEntity
  8
0
  6
Continuous
 62
     1
420
 16711680
370
    25
100
AcDbPolyline
 90
        5
 70
     1
 43
0.0
 10
8.159736400136183
 20
55.88531500000001
 10
8.159736400136183
 20
56.113915
 10
7.499336400136182
 20
56.113915
 10
7.499336400136182
 20
55.88531500000001
 10
8.159736400136183
 20
55.88531500000001
  0
LWPOLYLINE
  5
98
330
1F
100
AcDbEntity
  8
0
  6
Continuous
 62
     1
420
 16711680
370
    25
100
AcDbPolyline
 90
        5
 70
     1
 43
0.0
 10
8.159736400136183
 20
55.485316
 10
8.159736400136183
 20
55.713916
 10
7.499336400136182
 20
55.713916
 10
7.499336400136182
 20
55.485316
 10
8.159736400136183
 20
55.485316
  0
LWPOLYLINE
  5
99
330
1F
100
AcDbEntity
  8
0
  6
Continuous
 62
     1
420
 16711680
370
    25
100
AcDbPolyline
 90
        5
 70
     1
 43
0.0
 10
8.159736400136183
 20
55.085317
 10
8.159736400136183
 20
55.313917
 10
7.499336400136182
 20
55.313917
 10
7.499336400136182
 20
55.085317
 10
8.159736400136183
 20
55.085317
  0
LWPOLYLINE
  5
9A
330
1F
100
AcDbEntity
  8
0
  6
Continuous
 62
     1
420
 16711680
370
    25
100
AcDbPolyline
 90
        5
 70
     1
 43
0.0
 10
8.159736400136183
 20
54.68531800000001
 10
8.159736400136183
 20
54.913918
 10
7.499336400136182
 20
54.913918
 10
7.499336400136182
 20
54.68531800000001
 10
8.159736400136183
 20
54.68531800000001
  0
LWPOLYLINE
  5
9B
330
1F
100
AcDbEntity
  8
0
  6
Continuous
 62
     1
420
 16711680
370
    25
100
AcDbPolyline
 90
        5
 70
     1
 43
0.0
 10
8.159736400136183
 20
54.285318
 10
8.159736400136183
 20
54.513918
 10
7.499336400136182
 20
54.513918
 10
7.499336400136182
 20
54.285318
 10
8.159736400136183
 20
54.285318
  0
LWPOLYLINE
  5
9C
330
1F
100
AcDbEntity
  8
0
  6
Continuous
 62
     1
420
 16711680
370
    25
100
AcDbPolyline
 90
        5
 70
     1
 43
0.0
 10
8.159736400136183
 20
53.88531900000001
 10
8.159736400136183
 20
54.11391900000001
 10
7.499336400136182
 20
54.11391900000001
 10
7.499336400136182
 20
53.88531900000001
 10
8.159736400136183
 20
53.88531900000001
  0
LWPOLYLINE
  5
9D
330
1F
100
AcDbEntity
  8
0
  6
Continuous
 62
     1
420
 16711680
370
    25
100
AcDbPolyline
 90
        5
 70
     1
 43
0.0
 10
8.159736400136183
 20
53.48529500000001
 10
8.159736400136183
 20
53.71389500000001
 10
7.499336400136182
 20
53.71389500000001
 10
7.499336400136182
 20
53.48529500000001
 10
8.159736400136183
 20
53.48529500000001
  0
LWPOLYLINE
  5
9E
330
1F
100
AcDbEntity
  8
0
  6
Continuous
 62
     1
420
 16711680
370
    25
100
AcDbPolyline
 90
        5
 70
     1
 43
0.0
 10
8.159736400136183
 20
53.08529500000001
 10
8.159736400136183
 20
53.31389500000001
 10
7.499336400136182
 20
53.31389500000001
 10
7.499336400136182
 20
53.08529500000001
 10
8.159736400136183
 20
53.08529500000001
  0
LWPOLYLINE
  5
9F
330
1F
100
AcDbEntity
  8
0
  6
Continuous
 62
     1
420
 16711680
370
    25
100
AcDbPolyline
 90
        5
 70
     1
 43
0.0
 10
8.159736400136183
 20
52.685296
 10
8.159736400136183
 20
52.91389600000001
 10
7.499336400136182
 20
52.91389600000001
 10
7.499336400136182
 20
52.685296
 10
8.159736400136183
 20
52.685296
  0
LWPOLYLINE
  5
A0
330
1F
100
AcDbEntity
  8
0
  6
Continuous
 62
     1
420
 16711680
370
    25
100
AcDbPolyline
 90
        5
 70
     1
 43
0.0
 10
8.159736400136183
 20
52.285297
 10
8.159736400136183
 20
52.513897
 10
7.499336400136182
 20
52.513897
 10
7.499336400136182
 20
52.285297
 10
8.159736400136183
 20
52.285297
  0
LWPOLYLINE
  5
A1
330
1F
100
AcDbEntity
  8
0
  6
Continuous
 62
     1
420
 16711680
370
    25
100
AcDbPolyline
 90
        5
 70
     1
 43
0.0
 10
8.159736400136183
 20
51.88529800000001
 10
8.159736400136183
 20
52.11389800000001
 10
7.499336400136182
 20
52.11389800000001
 10
7.499336400136182
 20
51.88529800000001
 10
8.159736400136183
 20
51.88529800000001
  0
LWPOLYLINE
  5
A2
330
1F
100
AcDbEntity
  8
0
  6
Continuous
 62
     1
420
 16711680
370
    25
100
AcDbPolyline
 90
        5
 70
     1
 43
0.0
 10
8.159736400136183
 20
51.485299
 10
8.159736400136183
 20
51.713899
 10
7.499336400136182
 20
51.713899
 10
7.499336400136182
 20
51.485299
 10
8.159736400136183
 20
51.485299
  0
LWPOLYLINE
  5
A3
330
1F
100
AcDbEntity
  8
0
  6
Continuous
 62
     1
420
 16711680
370
    25
100
AcDbPolyline
 90
        5
 70
     1
 43
0.0
 10
8.159736400136183
 20
51.08529900000001
 10
8.159736400136183
 20
51.31389900000001
 10
7.499336400136182
 20
51.31389900000001
 10
7.499336400136182
 20
51.08529900000001
 10
8.159736400136183
 20
51.08529900000001
  0
LWPOLYLINE
  5
A4
330
1F
100
AcDbEntity
  8
0
  6
Continuous
 62
     1
420
 16711680
370
    25
100
AcDbPolyline
 90
        5
 70
     1
 43
0.0
 10
8.159736400136183
 20
50.68530000000001
 10
8.159736400136183
 20
50.91390000000001
 10
7.499336400136182
 20
50.91390000000001
 10
7.499336400136182
 20
50.68530000000001
 10
8.159736400136183
 20
50.68530000000001
  0
LWPOLYLINE
  5
A5
330
1F
100
AcDbEntity
  8
0
  6
Continuous
 62
     1
420
 16711680
370
    25
100
AcDbPolyline
 90
        5
 70
     1
 43
0.0
 10
8.159736400136183
 20
50.285301
 10
8.159736400136183
 20
50.513901
 10
7.499336400136182
 20
50.513901
 10
7.499336400136182
 20
50.285301
 10
8.159736400136183
 20
50.285301
  0
LWPOLYLINE
  5
A6
330
1F
100
AcDbEntity
  8
0
  6
Continuous
 62
     1
420
 16711680
370
    25
100
AcDbPolyline
 90
        5
 70
     1
 43
0.0
 10
8.159736400136183
 20
49.88530200000001
 10
8.159736400136183
 20
50.11390200000001
 10
7.499336400136182
 20
50.11390200000001
 10
7.499336400136182
 20
49.88530200000001
 10
8.159736400136183
 20
49.88530200000001
  0
LWPOLYLINE
  5
A7
330
1F
100
AcDbEntity
  8
0
  6
Continuous
 62
     1
420
 16711680
370
    25
100
AcDbPolyline
 90
        5
 70
     1
 43
0.0
 10
8.159736400136183
 20
49.48530300000002
 10
8.159736400136183
 20
49.71390300000001
 10
7.499336400136182
 20
49.71390300000001
 10
7.499336400136182
 20
49.48530300000002
 10
8.159736400136183
 20
49.48530300000002
  0
LWPOLYLINE
  5
A8
330
1F
100
AcDbEntity
  8
0
  6
Continuous
 62
     1
420
 16711680
370
    25
100
AcDbPolyline
 90
        5
 70
     1
 43
0.0
 10
8.159736400136183
 20
49.08530300000001
 10
8.159736400136183
 20
49.31390300000001
 10
7.499336400136182
 20
49.31390300000001
 10
7.499336400136182
 20
49.08530300000001
 10
8.159736400136183
 20
49.08530300000001
  0
LWPOLYLINE
  5
A9
330
1F
100
AcDbEntity
  8
0
  6
Continuous
 62
     1
420
 16711680
370
    25
100
AcDbPolyline
 90
        5
 70
     1
 43
0.0
 10
8.159736400136183
 20
48.685304
 10
8.159736400136183
 20
48.91390400000002
 10
7.499336400136182
 20
48.91390400000002
 10
7.499336400136182
 20
48.685304
 10
8.159736400136183
 20
48.685304
  0
LWPOLYLINE
  5
AA
330
1F
100
AcDbEntity
  8
0
  6
Continuous
 62
     1
420
 16711680
370
    25
100
AcDbPolyline
 90
        5
 70
     1
 43
0.0
 10
8.159736400136183
 20
48.28530500000001
 10
8.159736400136183
 20
48.513905
 10
7.499336400136182
 20
48.513905
 10
7.499336400136182
 20
48.28530500000001
 10
8.159736400136183
 20
48.28530500000001
  0
LWPOLYLINE
  5
AB
330
1F
100
AcDbEntity
  8
0
  6
Continuous
 62
     1
420
 16711680
370
    25
100
AcDbPolyline
 90
        5
 70
     1
 43
0.0
 10
8.159736400136183
 20
47.885306
 10
8.159736400136183
 20
48.113906
 10
7.499336400136182
 20
48.113906
 10
7.499336400136182
 20
47.885306
 10
8.159736400136183
 20
47.885306
  0
LWPOLYLINE
  5
AC
330
1F
100
AcDbEntity
  8
0
  6
Continuous
 62
     1
420
 16711680
370
    25
100
AcDbPolyline
 90
        5
 70
     1
 43
0.0
 10
8.159736400136183
 20
47.48530700000001
 10
8.159736400136183
 20
47.71390700000001
 10
7.499336400136182
 20
47.71390700000001
 10
7.499336400136182
 20
47.48530700000001
 10
8.159736400136183
 20
47.48530700000001
  0
LWPOLYLINE
  5
AD
330
1F
100
AcDbEntity
  8
0
  6
Continuous
 62
     1
420
 16711680
370
    25
100
AcDbPolyline
 90
        5
 70
     1
 43
0.0
 10
8.159736400136183
 20
47.08530700000001
 10
8.159736400136183
 20
47.313907
 10
7.499336400136182
 20
47.313907
 10
7.499336400136182
 20
47.08530700000001
 10
8.159736400136183
 20
47.08530700000001
  0
LWPOLYLINE
  5
AE
330
1F
100
AcDbEntity
  8
0
  6
Continuous
 62
     1
420
 16711680
370
    25
100
AcDbPolyline
 90
        5
 70
     1
 43
0.0
 10
8.159736400136183
 20
46.68530800000001
 10
8.159736400136183
 20
46.91390800000001
 10
7.499336400136182
 20
46.91390800000001
 10
7.499336400136182
 20
46.68530800000001
 10
8.159736400136183
 20
46.68530800000001
  0
LWPOLYLINE
  5
AF
330
1F
100
AcDbEntity
  8
0
  6
Continuous
 62
     1
420
 16711680
370
    25
100
AcDbPolyline
 90
        5
 70
     1
 43
0.0
 10
8.159736400136183
 20
46.285309
 10
8.159736400136183
 20
46.51390900000001
 10
7.499336400136182
 20
46.51390900000001
 10
7.499336400136182
 20
46.285309
 10
8.159736400136183
 20
46.285309
  0
LWPOLYLINE
  5
B0
330
1F
100
AcDbEntity
  8
0
  6
Continuous
 62
     1
420
 16711680
370
    25
100
AcDbPolyline
 90
        5
 70
     1
 43
0.0
 10
8.159736400136183
 20
45.88531
 10
8.159736400136183
 20
46.11391
 10
7.499336400136182
 20
46.11391
 10
7.499336400136182
 20
45.88531
 10
8.159736400136183
 20
45.88531
  0
LWPOLYLINE
  5
B1
330
1F
100
AcDbEntity
  8
0
  6
Continuous
 62
     1
420
 16711680
370
    25
100
AcDbPolyline
 90
        5
 70
     1
 43
0.0
 10
8.159736400136183
 20
45.48531100000001
 10
8.159736400136183
 20
45.71391100000001
 10
7.499336400136182
 20
45.71391100000001
 10
7.499336400136182
 20
45.48531100000001
 10
8.159736400136183
 20
45.48531100000001
  0
LWPOLYLINE
  5
B2
330
1F
100
AcDbEntity
  8
0
  6
Continuous
 62
     1
420
 16711680
370
    25
100
AcDbPolyline
 90
        5
 70
     1
 43
0.0
 10
8.159736400136183
 20
45.085311
 10
8.159736400136183
 20
45.313911
 10
7.499336400136182
 20
45.313911
 10
7.499336400136182
 20
45.085311
 10
8.159736400136183
 20
45.085311
  0
LWPOLYLINE
  5
B3
330
1F
100
AcDbEntity
  8
0
  6
Continuous
 62
     1
420
 16711680
370
    25
100
AcDbPolyline
 90
        5
 70
     1
 43
0.0
 10
8.159736400136183
 20
44.68531200000001
 10
8.159736400136183
 20
44.91391200000001
 10
7.499336400136182
 20
44.91391200000001
 10
7.499336400136182
 20
44.68531200000001
 10
8.159736400136183
 20
44.68531200000001
  0
LWPOLYLINE
  5
B4
330
1F
100
AcDbEntity
  8
0
  6
Continuous
 62
     1
420
 16711680
370
    25
100
AcDbPolyline
 90
        5
 70
     1
 43
0.0
 10
8.159736400136183
 20
44.28531300000001
 10
8.159736400136183
 20
44.513913
 10
7.499336400136182
 20
44.513913
 10
7.499336400136182
 20
44.28531300000001
 10
8.159736400136183
 20
44.28531300000001
  0
LWPOLYLINE
  5
B5
330
1F
100
AcDbEntity
  8
0
  6
Continuous
 62
     1
420
 16711680
370
    25
100
AcDbPolyline
 90
        5
 70
     1
 43
0.0
 10
8.159736400136183
 20
43.88531400000001
 10
8.159736400136183
 20
44.11391400000001
 10
7.499336400136182
 20
44.11391400000001
 10
7.499336400136182
 20
43.88531400000001
 10
8.159736400136183
 20
43.88531400000001
  0
LWPOLYLINE
  5
B6
330
1F
100
AcDbEntity
  8
0
  6
Continuous
 62
     1
420
 16711680
370
    25
100
AcDbPolyline
 90
        5
 70
     1
 43
0.0
 10
8.159736400136183
 20
43.48531500000001
 10
8.159736400136183
 20
43.713915
 10
7.499336400136182
 20
43.713915
 10
7.499336400136182
 20
43.48531500000001
 10
8.159736400136183
 20
43.48531500000001
  0
LWPOLYLINE
  5
B7
330
1F
100
AcDbEntity
  8
0
  6
Continuous
 62
     1
420
 16711680
370
    25
100
AcDbPolyline
 90
        5
 70
     1
 43
0.0
 10
8.159736400136183
 20
43.08531500000001
 10
8.159736400136183
 20
43.31391500000001
 10
7.499336400136182
 20
43.31391500000001
 10
7.499336400136182
 20
43.08531500000001
 10
8.159736400136183
 20
43.08531500000001
  0
LWPOLYLINE
  5
B8
330
1F
100
AcDbEntity
  8
0
  6
Continuous
 62
     1
420
 16711680
370
    25
100
AcDbPolyline
 90
        5
 70
     1
 43
0.0
 10
8.159736400136183
 20
42.68531600000001
 10
8.159736400136183
 20
42.91391600000001
 10
7.499336400136182
 20
42.91391600000001
 10
7.499336400136182
 20
42.68531600000001
 10
8.159736400136183
 20
42.68531600000001
  0
LWPOLYLINE
  5
B9
330
1F
100
AcDbEntity
  8
0
  6
Continuous
 62
     1
420
 16711680
370
    25
100
AcDbPolyline
 90
        5
 70
     1
 43
0.0
 10
8.159736400136183
 20
42.28531700000001
 10
8.159736400136183
 20
42.51391700000001
 10
7.499336400136182
 20
42.51391700000001
 10
7.499336400136182
 20
42.28531700000001
 10
8.159736400136183
 20
42.28531700000001
  0
LWPOLYLINE
  5
BA
330
1F
100
AcDbEntity
  8
0
  6
Continuous
 62
     1
420
 16711680
370
    25
100
AcDbPolyline
 90
        5
 70
     1
 43
0.0
 10
8.159736400136183
 20
41.88531800000001
 10
8.159736400136183
 20
42.113918
 10
7.499336400136182
 20
42.113918
 10
7.499336400136182
 20
41.88531800000001
 10
8.159736400136183
 20
41.88531800000001
  0
LWPOLYLINE
  5
BB
330
1F
100
AcDbEntity
  8
0
  6
Continuous
 62
     1
420
 16711680
370
    25
100
AcDbPolyline
 90
        5
 70
     1
 43
0.0
 10
8.159736400136183
 20
41.485319
 10
8.159736400136183
 20
41.713919
 10
7.499336400136182
 20
41.713919
 10
7.499336400136182
 20
41.485319
 10
8.159736400136183
 20
41.485319
  0
LWPOLYLINE
  5
BC
330
1F
100
AcDbEntity
  8
0
  6
Continuous
 62
     1
420
 16711680
370
    25
100
AcDbPolyline
 90
        5
 70
     1
 43
0.0
 10
8.159736400136183
 20
41.085319
 10
8.159736400136183
 20
41.31391900000001
 10
7.499336400136182
 20
41.31391900000001
 10
7.499336400136182
 20
41.085319
 10
8.159736400136183
 20
41.085319
  0
LWPOLYLINE
  5
BD
330
1F
100
AcDbEntity
  8
0
  6
Continuous
 62
     1
420
 16711680
370
    25
100
AcDbPolyline
 90
        5
 70
     1
 43
0.0
 10
8.159736400136183
 20
40.68529500000001
 10
8.159736400136183
 20
40.913895
 10
7.499336400136182
 20
40.913895
 10
7.499336400136182
 20
40.68529500000001
 10
8.159736400136183
 20
40.68529500000001
  0
LWPOLYLINE
  5
BE
330
1F
100
AcDbEntity
  8
0
  6
Continuous
 62
     1
420
 16711680
370
    25
100
AcDbPolyline
 90
        5
 70
     1
 43
0.0
 10
8.159736400136183
 20
40.285296
 10
8.159736400136183
 20
40.51389600000001
 10
7.499336400136182
 20
40.51389600000001
 10
7.499336400136182
 20
40.285296
 10
8.159736400136183
 20
40.285296
  0
LWPOLYLINE
  5
BF
330
1F
100
AcDbEntity
  8
0
  6
Continuous
 62
     1
420
 16711680
370
    25
100
AcDbPolyline
 90
        5
 70
     1
 43
0.0
 10
8.159736400136183
 20
39.885296
 10
8.159736400136183
 20
40.113896
 10
7.499336400136182
 20
40.113896
 10
7.499336400136182
 20
39.885296
 10
8.159736400136183
 20
39.885296
  0
LWPOLYLINE
  5
C0
330
1F
100
AcDbEntity
  8
0
  6
Continuous
 62
     1
420
 16711680
370
    25
100
AcDbPolyline
 90
        5
 70
     1
 43
0.0
 10
8.159736400136183
 20
39.485297
 10
8.159736400136183
 20
39.713897
 10
7.499336400136182
 20
39.713897
 10
7.499336400136182
 20
39.485297
 10
8.159736400136183
 20
39.485297
  0
LWPOLYLINE
  5
C1
330
1F
100
AcDbEntity
  8
0
  6
Continuous
 62
     1
420
 16711680
370
    25
100
AcDbPolyline
 90
        5
 70
     1
 43
0.0
 10
8.159736400136183
 20
39.08529800000001
 10
8.159736400136183
 20
39.31389800000001
 10
7.499336400136182
 20
39.31389800000001
 10
7.499336400136182
 20
39.08529800000001
 10
8.159736400136183
 20
39.08529800000001
  0
LWPOLYLINE
  5
C2
330
1F
100
AcDbEntity
  8
0
  6
Continuous
 62
     1
420
 16711680
370
    25
100
AcDbPolyline
 90
        5
 70
     1
 43
0.0
 10
8.159736400136183
 20
38.685299
 10
8.159736400136183
 20
38.91389900000001
 10
7.499336400136182
 20
38.91389900000001
 10
7.499336400136182
 20
38.685299
 10
8.159736400136183
 20
38.685299
  0
LWPOLYLINE
  5
C3
330
1F
100
AcDbEntity
  8
0
  6
Continuous
 62
     1
420
 16711680
370
    25
100
AcDbPolyline
 90
        5
 70
     1
 43
0.0
 10
8.159736400136183
 20
38.28530000000001
 10
8.159736400136183
 20
38.51390000000001
 10
7.499336400136182
 20
38.51390000000001
 10
7.499336400136182
 20
38.28530000000001
 10
8.159736400136183
 20
38.28530000000001
  0
LWPOLYLINE
  5
C4
330
1F
100
AcDbEntity
  8
0
  6
Continuous
 62
     1
420
 16711680
370
    25
100
AcDbPolyline
 90
        5
 70
     1
 43
0.0
 10
8.159736400136183
 20
37.88530000000001
 10
8.159736400136183
 20
38.1139
 10
7.499336400136182
 20
38.1139
 10
7.499336400136182
 20
37.88530000000001
 10
8.159736400136183
 20
37.88530000000001
  0
LWPOLYLINE
  5
C5
330
1F
100
AcDbEntity
  8
0
  6
Continuous
 62
     1
420
 16711680
370
    25
100
AcDbPolyline
 90
        5
 70
     1
 43
0.0
 10
8.159736400136183
 20
37.48530100000001
 10
8.159736400136183
 20
37.71390100000001
 10
7.499336400136182
 20
37.71390100000001
 10
7.499336400136182
 20
37.48530100000001
 10
8.159736400136183
 20
37.48530100000001
  0
LWPOLYLINE
  5
C6
330
1F
100
AcDbEntity
  8
0
  6
Continuous
 62
     1
420
 16711680
370
    25
100
AcDbPolyline
 90
        5
 70
     1
 43
0.0
 10
57.44973240013619
 20
57.496818
 10
57.44973240013619
 20
57.85241800000001
 10
56.78933240013619
 20
57.85241800000001
 10
56.78933240013619
 20
57.496818
 10
57.44973240013619
 20
57.496818
  0
LWPOLYLINE
  5
C7
330
1F
100
AcDbEntity
  8
0
  6
Continuous
 62
     1
420
 16711680
370
    25
100
AcDbPolyline
 90
        5
 70
     1
 43
0.0
 10
54.73975540013618
 20
57.496818
 10
54.73975540013618
 20
57.85241800000001
 10
54.07935540013618
 20
57.85241800000001
 10
54.07935540013618
 20
57.496818
 10
54.73975540013618
 20
57.496818
  0
LWPOLYLINE
  5
C8
330
1F
100
AcDbEntity
  8
0
  6
Continuous
 62
     1
420
 16711680
370
    25
100
AcDbPolyline
 90
        5
 70
     1
 43
0.0
 10
54.73975540013618
 20
57.08531300000001
 10
54.73975540013618
 20
57.31391300000001
 10
54.07935540013618
 20
57.31391300000001
 10
54.07935540013618
 20
57.08531300000001
 10
54.73975540013618
 20
57.08531300000001
  0
LWPOLYLINE
  5
C9
330
1F
100
AcDbEntity
  8
0
  6
Continuous
 62
     1
420
 16711680
370
    25
100
AcDbPolyline
 90
        5
 70
     1
 43
0.0
 10
54.73975540013618
 20
56.68531400000001
 10
54.73975540013618
 20
56.913914
 10
54.07935540013618
 20
56.913914
 10
54.07935540013618
 20
56.68531400000001
 10
54.73975540013618
 20
56.68531400000001
  0
LWPOLYLINE
  5
CA
330
1F
100
AcDbEntity
  8
0
  6
Continuous
 62
     1
420
 16711680
370
    25
100
AcDbPolyline
 90
        5
 70
     1
 43
0.0
 10
54.73975540013618
 20
56.285314
 10
54.73975540013618
 20
56.51391400000001
 10
54.07935540013618
 20
56.51391400000001
 10
54.07935540013618
 20
56.285314
 10
54.73975540013618
 20
56.285314
  0
LWPOLYLINE
  5
CB
330
1F
100
AcDbEntity
  8
0
  6
Continuous
 62
     1
420
 16711680
370
    25
100
AcDbPolyline
 90
        5
 70
     1
 43
0.0
 10
54.73975540013618
 20
55.88531500000001
 10
54.73975540013618
 20
56.113915
 10
54.07935540013618
 20
56.113915
 10
54.07935540013618
 20
55.88531500000001
 10
54.73975540013618
 20
55.88531500000001
  0
LWPOLYLINE
  5
CC
330
1F
100
AcDbEntity
  8
0
  6
Continuous
 62
     1
420
 16711680
370
    25
100
AcDbPolyline
 90
        5
 70
     1
 43
0.0
 10
54.73975540013618
 20
55.485316
 10
54.73975540013618
 20
55.713916
 10
54.07935540013618
 20
55.713916
 10
54.07935540013618
 20
55.485316
 10
54.73975540013618
 20
55.485316
  0
LWPOLYLINE
  5
CD
330
1F
100
AcDbEntity
  8
0
  6
Continuous
 62
     1
420
 16711680
370
    25
100
AcDbPolyline
 90
        5
 70
     1
 43
0.0
 10
54.73975540013618
 20
55.085317
 10
54.73975540013618
 20
55.313917
 10
54.07935540013618
 20
55.313917
 10
54.07935540013618
 20
55.085317
 10
54.73975540013618
 20
55.085317
  0
LWPOLYLINE
  5
CE
330
1F
100
AcDbEntity
  8
0
  6
Continuous
 62
     1
420
 16711680
370
    25
100
AcDbPolyline
 90
        5
 70
     1
 43
0.0
 10
54.73975540013618
 20
54.68531800000001
 10
54.73975540013618
 20
54.913918
 10
54.07935540013618
 20
54.913918
 10
54.07935540013618
 20
54.68531800000001
 10
54.73975540013618
 20
54.68531800000001
  0
LWPOLYLINE
  5
CF
330
1F
100
AcDbEntity
  8
0
  6
Continuous
 62
     1
420
 16711680
370
    25
100
AcDbPolyline
 90
        5
 70
     1
 43
0.0
 10
54.73975540013618
 20
54.285318
 10
54.73975540013618
 20
54.513918
 10
54.07935540013618
 20
54.513918
 10
54.07935540013618
 20
54.285318
 10
54.73975540013618
 20
54.285318
  0
LWPOLYLINE
  5
D0
330
1F
100
AcDbEntity
  8
0
  6
Continuous
 62
     1
420
 16711680
370
    25
100
AcDbPolyline
 90
        5
 70
     1
 43
0.0
 10
54.73975540013618
 20
53.88531900000001
 10
54.73975540013618
 20
54.11391900000001
 10
54.07935540013618
 20
54.11391900000001
 10
54.07935540013618
 20
53.88531900000001
 10
54.73975540013618
 20
53.88531900000001
  0
LWPOLYLINE
  5
D1
330
1F
100
AcDbEntity
  8
0
  6
Continuous
 62
     1
420
 16711680
370
    25
100
AcDbPolyline
 90
        5
 70
     1
 43
0.0
 10
54.73975540013618
 20
53.48529500000001
 10
54.73975540013618
 20
53.71389500000001
 10
54.07935540013618
 20
53.71389500000001
 10
54.07935540013618
 20
53.48529500000001
 10
54.73975540013618
 20
53.48529500000001
  0
LWPOLYLINE
  5
D2
330
1F
100
AcDbEntity
  8
0
  6
Continuous
 62
     1
420
 16711680
370
    25
100
AcDbPolyline
 90
        5
 70
     1
 43
0.0
 10
54.73975540013618
 20
53.08529500000001
 10
54.73975540013618
 20
53.31389500000001
 10
54.07935540013618
 20
53.31389500000001
 10
54.07935540013618
 20
53.08529500000001
 10
54.73975540013618
 20
53.08529500000001
  0
LWPOLYLINE
  5
D3
330
1F
100
AcDbEntity
  8
0
  6
Continuous
 62
     1
420
 16711680
370
    25
100
AcDbPolyline
 90
        5
 70
     1
 43
0.0
 10
54.73975540013618
 20
52.685296
 10
54.73975540013618
 20
52.91389600000001
 10
54.07935540013618
 20
52.91389600000001
 10
54.07935540013618
 20
52.685296
 10
54.73975540013618
 20
52.685296
  0
LWPOLYLINE
  5
D4
330
1F
100
AcDbEntity
  8
0
  6
Continuous
 62
     1
420
 16711680
370
    25
100
AcDbPolyline
 90
        5
 70
     1
 43
0.0
 10
54.73975540013618
 20
52.285297
 10
54.73975540013618
 20
52.513897
 10
54.07935540013618
 20
52.513897
 10
54.07935540013618
 20
52.285297
 10
54.73975540013618
 20
52.285297
  0
LWPOLYLINE
  5
D5
330
1F
100
AcDbEntity
  8
0
  6
Continuous
 62
     1
420
 16711680
370
    25
100
AcDbPolyline
 90
        5
 70
     1
 43
0.0
 10
54.73975540013618
 20
51.88529800000001
 10
54.73975540013618
 20
52.11389800000001
 10
54.07935540013618
 20
52.11389800000001
 10
54.07935540013618
 20
51.88529800000001
 10
54.73975540013618
 20
51.88529800000001
  0
LWPOLYLINE
  5
D6
330
1F
100
AcDbEntity
  8
0
  6
Continuous
 62
     1
420
 16711680
370
    25
100
AcDbPolyline
 90
        5
 70
     1
 43
0.0
 10
54.73975540013618
 20
51.485299
 10
54.73975540013618
 20
51.713899
 10
54.07935540013618
 20
51.713899
 10
54.07935540013618
 20
51.485299
 10
54.73975540013618
 20
51.485299
  0
LWPOLYLINE
  5
D7
330
1F
100
AcDbEntity
  8
0
  6
Continuous
 62
     1
420
 16711680
370
    25
100
AcDbPolyline
 90
        5
 70
     1
 43
0.0
 10
54.73975540013618
 20
51.08529900000001
 10
54.73975540013618
 20
51.31389900000001
 10
54.07935540013618
 20
51.31389900000001
 10
54.07935540013618
 20
51.08529900000001
 10
54.73975540013618
 20
51.08529900000001
  0
LWPOLYLINE
  5
D8
330
1F
100
AcDbEntity
  8
0
  6
Continuous
 62
     1
420
 16711680
370
    25
100
AcDbPolyline
 90
        5
 70
     1
 43
0.0
 10
54.73975540013618
 20
50.68530000000001
 10
54.73975540013618
 20
50.91390000000001
 10
54.07935540013618
 20
50.91390000000001
 10
54.07935540013618
 20
50.68530000000001
 10
54.73975540013618
 20
50.68530000000001
  0
LWPOLYLINE
  5
D9
330
1F
100
AcDbEntity
  8
0
  6
Continuous
 62
     1
420
 16711680
370
    25
100
AcDbPolyline
 90
        5
 70
     1
 43
0.0
 10
54.73975540013618
 20
50.285301
 10
54.73975540013618
 20
50.513901
 10
54.07935540013618
 20
50.513901
 10
54.07935540013618
 20
50.285301
 10
54.73975540013618
 20
50.285301
  0
LWPOLYLINE
  5
DA
330
1F
100
AcDbEntity
  8
0
  6
Continuous
 62
     1
420
 16711680
370
    25
100
AcDbPolyline
 90
        5
 70
     1
 43
0.0
 10
54.73975540013618
 20
49.88530200000001
 10
54.73975540013618
 20
50.11390200000001
 10
54.07935540013618
 20
50.11390200000001
 10
54.07935540013618
 20
49.88530200000001
 10
54.73975540013618
 20
49.88530200000001
  0
LWPOLYLINE
  5
DB
330
1F
100
AcDbEntity
  8
0
  6
Continuous
 62
     1
420
 16711680
370
    25
100
AcDbPolyline
 90
        5
 70
     1
 43
0.0
 10
54.73975540013618
 20
49.48530300000002
 10
54.73975540013618
 20
49.71390300000001
 10
54.07935540013618
 20
49.71390300000001
 10
54.07935540013618
 20
49.48530300000002
 10
54.73975540013618
 20
49.48530300000002
  0
LWPOLYLINE
  5
DC
330
1F
100
AcDbEntity
  8
0
  6
Continuous
 62
     1
420
 16711680
370
    25
100
AcDbPolyline
 90
        5
 70
     1
 43
0.0
 10
54.73975540013618
 20
49.08530300000001
 10
54.73975540013618
 20
49.31390300000001
 10
54.07935540013618
 20
49.31390300000001
 10
54.07935540013618
 20
49.08530300000001
 10
54.73975540013618
 20
49.08530300000001
  0
LWPOLYLINE
  5
DD
330
1F
100
AcDbEntity
  8
0
  6
Continuous
 62
     1
420
 16711680
370
    25
100
AcDbPolyline
 90
        5
 70
     1
 43
0.0
 10
54.73975540013618
 20
48.685304
 10
54.73975540013618
 20
48.91390400000002
 10
54.07935540013618
 20
48.91390400000002
 10
54.07935540013618
 20
48.685304
 10
54.73975540013618
 20
48.685304
  0
LWPOLYLINE
  5
DE
330
1F
100
AcDbEntity
  8
0
  6
Continuous
 62
     1
420
 16711680
370
    25
100
AcDbPolyline
 90
        5
 70
     1
 43
0.0
 10
54.73975540013618
 20
48.28530500000001
 10
54.73975540013618
 20
48.513905
 10
54.07935540013618
 20
48.513905
 10
54.07935540013618
 20
48.28530500000001
 10
54.73975540013618
 20
48.28530500000001
  0
LWPOLYLINE
  5
DF
330
1F
100
AcDbEntity
  8
0
  6
Continuous
 62
     1
420
 16711680
370
    25
100
AcDbPolyline
 90
        5
 70
     1
 43
0.0
 10
54.73975540013618
 20
47.885306
 10
54.73975540013618
 20
48.113906
 10
54.07935540013618
 20
48.113906
 10
54.07935540013618
 20
47.885306
 10
54.73975540013618
 20
47.885306
  0
LWPOLYLINE
  5
E0
330
1F
100
AcDbEntity
  8
0
  6
Continuous
 62
     1
420
 16711680
370
    25
100
AcDbPolyline
 90
        5
 70
     1
 43
0.0
 10
54.73975540013618
 20
47.48530700000001
 10
54.73975540013618
 20
47.71390700000001
 10
54.07935540013618
 20
47.71390700000001
 10
54.07935540013618
 20
47.48530700000001
 10
54.73975540013618
 20
47.48530700000001
  0
LWPOLYLINE
  5
E1
330
1F
100
AcDbEntity
  8
0
  6
Continuous
 62
     1
420
 16711680
370
    25
100
AcDbPolyline
 90
        5
 70
     1
 43
0.0
 10
54.73975540013618
 20
47.08530700000001
 10
54.73975540013618
 20
47.313907
 10
54.07935540013618
 20
47.313907
 10
54.07935540013618
 20
47.08530700000001
 10
54.73975540013618
 20
47.08530700000001
  0
LWPOLYLINE
  5
E2
330
1F
100
AcDbEntity
  8
0
  6
Continuous
 62
     1
420
 16711680
370
    25
100
AcDbPolyline
 90
        5
 70
     1
 43
0.0
 10
54.73975540013618
 20
46.68530800000001
 10
54.73975540013618
 20
46.91390800000001
 10
54.07935540013618
 20
46.91390800000001
 10
54.07935540013618
 20
46.68530800000001
 10
54.73975540013618
 20
46.68530800000001
  0
LWPOLYLINE
  5
E3
330
1F
100
AcDbEntity
  8
0
  6
Continuous
 62
     1
420
 16711680
370
    25
100
AcDbPolyline
 90
        5
 70
     1
 43
0.0
 10
54.73975540013618
 20
46.285309
 10
54.73975540013618
 20
46.51390900000001
 10
54.07935540013618
 20
46.51390900000001
 10
54.07935540013618
 20
46.285309
 10
54.73975540013618
 20
46.285309
  0
LWPOLYLINE
  5
E4
330
1F
100
AcDbEntity
  8
0
  6
Continuous
 62
     1
420
 16711680
370
    25
100
AcDbPolyline
 90
        5
 70
     1
 43
0.0
 10
54.73975540013618
 20
45.88531
 10
54.73975540013618
 20
46.11391
 10
54.07935540013618
 20
46.11391
 10
54.07935540013618
 20
45.88531
 10
54.73975540013618
 20
45.88531
  0
LWPOLYLINE
  5
E5
330
1F
100
AcDbEntity
  8
0
  6
Continuous
 62
     1
420
 16711680
370
    25
100
AcDbPolyline
 90
        5
 70
     1
 43
0.0
 10
54.73975540013618
 20
45.48531100000001
 10
54.73975540013618
 20
45.71391100000001
 10
54.07935540013618
 20
45.71391100000001
 10
54.07935540013618
 20
45.48531100000001
 10
54.73975540013618
 20
45.48531100000001
  0
LWPOLYLINE
  5
E6
330
1F
100
AcDbEntity
  8
0
  6
Continuous
 62
     1
420
 16711680
370
    25
100
AcDbPolyline
 90
        5
 70
     1
 43
0.0
 10
54.73975540013618
 20
45.085311
 10
54.73975540013618
 20
45.313911
 10
54.07935540013618
 20
45.313911
 10
54.07935540013618
 20
45.085311
 10
54.73975540013618
 20
45.085311
  0
LWPOLYLINE
  5
E7
330
1F
100
AcDbEntity
  8
0
  6
Continuous
 62
     1
420
 16711680
370
    25
100
AcDbPolyline
 90
        5
 70
     1
 43
0.0
 10
54.73975540013618
 20
44.68531200000001
 10
54.73975540013618
 20
44.91391200000001
 10
54.07935540013618
 20
44.91391200000001
 10
54.07935540013618
 20
44.68531200000001
 10
54.73975540013618
 20
44.68531200000001
  0
LWPOLYLINE
  5
E8
330
1F
100
AcDbEntity
  8
0
  6
Continuous
 62
     1
420
 16711680
370
    25
100
AcDbPolyline
 90
        5
 70
     1
 43
0.0
 10
54.73975540013618
 20
44.28531300000001
 10
54.73975540013618
 20
44.513913
 10
54.07935540013618
 20
44.513913
 10
54.07935540013618
 20
44.28531300000001
 10
54.73975540013618
 20
44.28531300000001
  0
LWPOLYLINE
  5
E9
330
1F
100
AcDbEntity
  8
0
  6
Continuous
 62
     1
420
 16711680
370
    25
100
AcDbPolyline
 90
        5
 70
     1
 43
0.0
 10
54.73975540013618
 20
43.88531400000001
 10
54.73975540013618
 20
44.11391400000001
 10
54.07935540013618
 20
44.11391400000001
 10
54.07935540013618
 20
43.88531400000001
 10
54.73975540013618
 20
43.88531400000001
  0
LWPOLYLINE
  5
EA
330
1F
100
AcDbEntity
  8
0
  6
Continuous
 62
     1
420
 16711680
370
    25
100
AcDbPolyline
 90
        5
 70
     1
 43
0.0
 10
54.73975540013618
 20
43.48531500000001
 10
54.73975540013618
 20
43.713915
 10
54.07935540013618
 20
43.713915
 10
54.07935540013618
 20
43.48531500000001
 10
54.73975540013618
 20
43.48531500000001
  0
LWPOLYLINE
  5
EB
330
1F
100
AcDbEntity
  8
0
  6
Continuous
 62
     1
420
 16711680
370
    25
100
AcDbPolyline
 90
        5
 70
     1
 43
0.0
 10
54.73975540013618
 20
43.08531500000001
 10
54.73975540013618
 20
43.31391500000001
 10
54.07935540013618
 20
43.31391500000001
 10
54.07935540013618
 20
43.08531500000001
 10
54.73975540013618
 20
43.08531500000001
  0
LWPOLYLINE
  5
EC
330
1F
100
AcDbEntity
  8
0
  6
Continuous
 62
     1
420
 16711680
370
    25
100
AcDbPolyline
 90
        5
 70
     1
 43
0.0
 10
54.73975540013618
 20
42.68531600000001
 10
54.73975540013618
 20
42.91391600000001
 10
54.07935540013618
 20
42.91391600000001
 10
54.07935540013618
 20
42.68531600000001
 10
54.73975540013618
 20
42.68531600000001
  0
LWPOLYLINE
  5
ED
330
1F
100
AcDbEntity
  8
0
  6
Continuous
 62
     1
420
 16711680
370
    25
100
AcDbPolyline
 90
        5
 70
     1
 43
0.0
 10
54.73975540013618
 20
42.28531700000001
 10
54.73975540013618
 20
42.51391700000001
 10
54.07935540013618
 20
42.51391700000001
 10
54.07935540013618
 20
42.28531700000001
 10
54.73975540013618
 20
42.28531700000001
  0
LWPOLYLINE
  5
EE
330
1F
100
AcDbEntity
  8
0
  6
Continuous
 62
     1
420
 16711680
370
    25
100
AcDbPolyline
 90
        5
 70
     1
 43
0.0
 10
54.73975540013618
 20
41.88531800000001
 10
54.73975540013618
 20
42.113918
 10
54.07935540013618
 20
42.113918
 10
54.07935540013618
 20
41.88531800000001
 10
54.73975540013618
 20
41.88531800000001
  0
LWPOLYLINE
  5
EF
330
1F
100
AcDbEntity
  8
0
  6
Continuous
 62
     1
420
 16711680
370
    25
100
AcDbPolyline
 90
        5
 70
     1
 43
0.0
 10
54.73975540013618
 20
41.485319
 10
54.73975540013618
 20
41.713919
 10
54.07935540013618
 20
41.713919
 10
54.07935540013618
 20
41.485319
 10
54.73975540013618
 20
41.485319
  0
LWPOLYLINE
  5
F0
330
1F
100
AcDbEntity
  8
0
  6
Continuous
 62
     1
420
 16711680
370
    25
100
AcDbPolyline
 90
        5
 70
     1
 43
0.0
 10
54.73975540013618
 20
41.085319
 10
54.73975540013618
 20
41.31391900000001
 10
54.07935540013618
 20
41.31391900000001
 10
54.07935540013618
 20
41.085319
 10
54.73975540013618
 20
41.085319
  0
LWPOLYLINE
  5
F1
330
1F
100
AcDbEntity
  8
0
  6
Continuous
 62
     1
420
 16711680
370
    25
100
AcDbPolyline
 90
        5
 70
     1
 43
0.0
 10
54.73975540013618
 20
40.68529500000001
 10
54.73975540013618
 20
40.913895
 10
54.07935540013618
 20
40.913895
 10
54.07935540013618
 20
40.68529500000001
 10
54.73975540013618
 20
40.68529500000001
  0
LWPOLYLINE
  5
F2
330
1F
100
AcDbEntity
  8
0
  6
Continuous
 62
     1
420
 16711680
370
    25
100
AcDbPolyline
 90
        5
 70
     1
 43
0.0
 10
54.73975540013618
 20
40.285296
 10
54.73975540013618
 20
40.51389600000001
 10
54.07935540013618
 20
40.51389600000001
 10
54.07935540013618
 20
40.285296
 10
54.73975540013618
 20
40.285296
  0
LWPOLYLINE
  5
F3
330
1F
100
AcDbEntity
  8
0
  6
Continuous
 62
     1
420
 16711680
370
    25
100
AcDbPolyline
 90
        5
 70
     1
 43
0.0
 10
54.73975540013618
 20
39.885296
 10
54.73975540013618
 20
40.113896
 10
54.07935540013618
 20
40.113896
 10
54.07935540013618
 20
39.885296
 10
54.73975540013618
 20
39.885296
  0
LWPOLYLINE
  5
F4
330
1F
100
AcDbEntity
  8
0
  6
Continuous
 62
     1
420
 16711680
370
    25
100
AcDbPolyline
 90
        5
 70
     1
 43
0.0
 10
54.73975540013618
 20
39.485297
 10
54.73975540013618
 20
39.713897
 10
54.07935540013618
 20
39.713897
 10
54.07935540013618
 20
39.485297
 10
54.73975540013618
 20
39.485297
  0
LWPOLYLINE
  5
F5
330
1F
100
AcDbEntity
  8
0
  6
Continuous
 62
     1
420
 16711680
370
    25
100
AcDbPolyline
 90
        5
 70
     1
 43
0.0
 10
54.73975540013618
 20
39.08529800000001
 10
54.73975540013618
 20
39.31389800000001
 10
54.07935540013618
 20
39.31389800000001
 10
54.07935540013618
 20
39.08529800000001
 10
54.73975540013618
 20
39.08529800000001
  0
LWPOLYLINE
  5
F6
330
1F
100
AcDbEntity
  8
0
  6
Continuous
 62
     1
420
 16711680
370
    25
100
AcDbPolyline
 90
        5
 70
     1
 43
0.0
 10
54.73975540013618
 20
38.685299
 10
54.73975540013618
 20
38.91389900000001
 10
54.07935540013618
 20
38.91389900000001
 10
54.07935540013618
 20
38.685299
 10
54.73975540013618
 20
38.685299
  0
LWPOLYLINE
  5
F7
330
1F
100
AcDbEntity
  8
0
  6
Continuous
 62
     1
420
 16711680
370
    25
100
AcDbPolyline
 90
        5
 70
     1
 43
0.0
 10
54.73975540013618
 20
38.28530000000001
 10
54.73975540013618
 20
38.51390000000001
 10
54.07935540013618
 20
38.51390000000001
 10
54.07935540013618
 20
38.28530000000001
 10
54.73975540013618
 20
38.28530000000001
  0
LWPOLYLINE
  5
F8
330
1F
100
AcDbEntity
  8
0
  6
Continuous
 62
     1
420
 16711680
370
    25
100
AcDbPolyline
 90
        5
 70
     1
 43
0.0
 10
54.73975540013618
 20
37.88530000000001
 10
54.73975540013618
 20
38.1139
 10
54.07935540013618
 20
38.1139
 10
54.07935540013618
 20
37.88530000000001
 10
54.73975540013618
 20
37.88530000000001
  0
LWPOLYLINE
  5
F9
330
1F
100
AcDbEntity
  8
0
  6
Continuous
 62
     1
420
 16711680
370
    25
100
AcDbPolyline
 90
        5
 70
     1
 43
0.0
 10
54.73975540013618
 20
37.48530100000001
 10
54.73975540013618
 20
37.71390100000001
 10
54.07935540013618
 20
37.71390100000001
 10
54.07935540013618
 20
37.48530100000001
 10
54.73975540013618
 20
37.48530100000001
  0
LWPOLYLINE
  5
FA
330
1F
100
AcDbEntity
  8
0
  6
Continuous
 62
     1
420
 16711680
370
    25
100
AcDbPolyline
 90
        5
 70
     1
 43
0.0
 10
54.73975540013618
 20
36.94679600000001
 10
54.73975540013618
 20
37.302396
 10
54.07935540013618
 20
37.302396
 10
54.07935540013618
 20
36.94679600000001
 10
54.73975540013618
 20
36.94679600000001
  0
LWPOLYLINE
  5
FB
330
1F
100
AcDbEntity
  8
0
  6
Continuous
 62
     1
420
 16711680
370
    25
100
AcDbPolyline
 90
        5
 70
     1
 43
0.0
 10
57.44973240013619
 20
36.94679600000001
 10
57.44973240013619
 20
37.302396
 10
56.78933240013619
 20
37.302396
 10
56.78933240013619
 20
36.94679600000001
 10
57.44973240013619
 20
36.94679600000001
  0
LWPOLYLINE
  5
FC
330
1F
100
AcDbEntity
  8
0
  6
Continuous
 62
     1
420
 16711680
370
    25
100
AcDbPolyline
 90
        5
 70
     1
 43
0.0
 10
57.44973240013619
 20
57.08531300000001
 10
57.44973240013619
 20
57.31391300000001
 10
56.78933240013619
 20
57.31391300000001
 10
56.78933240013619
 20
57.08531300000001
 10
57.44973240013619
 20
57.08531300000001
  0
LWPOLYLINE
  5
FD
330
1F
100
AcDbEntity
  8
0
  6
Continuous
 62
     1
420
 16711680
370
    25
100
AcDbPolyline
 90
        5
 70
     1
 43
0.0
 10
57.44973240013619
 20
56.68531400000001
 10
57.44973240013619
 20
56.913914
 10
56.78933240013619
 20
56.913914
 10
56.78933240013619
 20
56.68531400000001
 10
57.44973240013619
 20
56.68531400000001
  0
LWPOLYLINE
  5
FE
330
1F
100
AcDbEntity
  8
0
  6
Continuous
 62
     1
420
 16711680
370
    25
100
AcDbPolyline
 90
        5
 70
     1
 43
0.0
 10
57.44973240013619
 20
56.285314
 10
57.44973240013619
 20
56.51391400000001
 10
56.78933240013619
 20
56.51391400000001
 10
56.78933240013619
 20
56.285314
 10
57.44973240013619
 20
56.285314
  0
LWPOLYLINE
  5
FF
330
1F
100
AcDbEntity
  8
0
  6
Continuous
 62
     1
420
 16711680
370
    25
100
AcDbPolyline
 90
        5
 70
     1
 43
0.0
 10
57.44973240013619
 20
55.88531500000001
 10
57.44973240013619
 20
56.113915
 10
56.78933240013619
 20
56.113915
 10
56.78933240013619
 20
55.88531500000001
 10
57.44973240013619
 20
55.88531500000001
  0
LWPOLYLINE
  5
100
330
1F
100
AcDbEntity
  8
0
  6
Continuous
 62
     1
420
 16711680
370
    25
100
AcDbPolyline
 90
        5
 70
     1
 43
0.0
 10
57.44973240013619
 20
55.485316
 10
57.44973240013619
 20
55.713916
 10
56.78933240013619
 20
55.713916
 10
56.78933240013619
 20
55.485316
 10
57.44973240013619
 20
55.485316
  0
LWPOLYLINE
  5
101
330
1F
100
AcDbEntity
  8
0
  6
Continuous
 62
     1
420
 16711680
370
    25
100
AcDbPolyline
 90
        5
 70
     1
 43
0.0
 10
57.44973240013619
 20
55.085317
 10
57.44973240013619
 20
55.313917
 10
56.78933240013619
 20
55.313917
 10
56.78933240013619
 20
55.085317
 10
57.44973240013619
 20
55.085317
  0
LWPOLYLINE
  5
102
330
1F
100
AcDbEntity
  8
0
  6
Continuous
 62
     1
420
 16711680
370
    25
100
AcDbPolyline
 90
        5
 70
     1
 43
0.0
 10
57.44973240013619
 20
54.68531800000001
 10
57.44973240013619
 20
54.913918
 10
56.78933240013619
 20
54.913918
 10
56.78933240013619
 20
54.68531800000001
 10
57.44973240013619
 20
54.68531800000001
  0
LWPOLYLINE
  5
103
330
1F
100
AcDbEntity
  8
0
  6
Continuous
 62
     1
420
 16711680
370
    25
100
AcDbPolyline
 90
        5
 70
     1
 43
0.0
 10
57.44973240013619
 20
54.285318
 10
57.44973240013619
 20
54.513918
 10
56.78933240013619
 20
54.513918
 10
56.78933240013619
 20
54.285318
 10
57.44973240013619
 20
54.285318
  0
LWPOLYLINE
  5
104
330
1F
100
AcDbEntity
  8
0
  6
Continuous
 62
     1
420
 16711680
370
    25
100
AcDbPolyline
 90
        5
 70
     1
 43
0.0
 10
57.44973240013619
 20
53.88531900000001
 10
57.44973240013619
 20
54.11391900000001
 10
56.78933240013619
 20
54.11391900000001
 10
56.78933240013619
 20
53.88531900000001
 10
57.44973240013619
 20
53.88531900000001
  0
LWPOLYLINE
  5
105
330
1F
100
AcDbEntity
  8
0
  6
Continuous
 62
     1
420
 16711680
370
    25
100
AcDbPolyline
 90
        5
 70
     1
 43
0.0
 10
57.44973240013619
 20
53.48529500000001
 10
57.44973240013619
 20
53.71389500000001
 10
56.78933240013619
 20
53.71389500000001
 10
56.78933240013619
 20
53.48529500000001
 10
57.44973240013619
 20
53.48529500000001
  0
LWPOLYLINE
  5
106
330
1F
100
AcDbEntity
  8
0
  6
Continuous
 62
     1
420
 16711680
370
    25
100
AcDbPolyline
 90
        5
 70
     1
 43
0.0
 10
57.44973240013619
 20
53.08529500000001
 10
57.44973240013619
 20
53.31389500000001
 10
56.78933240013619
 20
53.31389500000001
 10
56.78933240013619
 20
53.08529500000001
 10
57.44973240013619
 20
53.08529500000001
  0
LWPOLYLINE
  5
107
330
1F
100
AcDbEntity
  8
0
  6
Continuous
 62
     1
420
 16711680
370
    25
100
AcDbPolyline
 90
        5
 70
     1
 43
0.0
 10
57.44973240013619
 20
52.685296
 10
57.44973240013619
 20
52.91389600000001
 10
56.78933240013619
 20
52.91389600000001
 10
56.78933240013619
 20
52.685296
 10
57.44973240013619
 20
52.685296
  0
LWPOLYLINE
  5
108
330
1F
100
AcDbEntity
  8
0
  6
Continuous
 62
     1
420
 16711680
370
    25
100
AcDbPolyline
 90
        5
 70
     1
 43
0.0
 10
57.44973240013619
 20
52.285297
 10
57.44973240013619
 20
52.513897
 10
56.78933240013619
 20
52.513897
 10
56.78933240013619
 20
52.285297
 10
57.44973240013619
 20
52.285297
  0
LWPOLYLINE
  5
109
330
1F
100
AcDbEntity
  8
0
  6
Continuous
 62
     1
420
 16711680
370
    25
100
AcDbPolyline
 90
        5
 70
     1
 43
0.0
 10
57.44973240013619
 20
51.88529800000001
 10
57.44973240013619
 20
52.11389800000001
 10
56.78933240013619
 20
52.11389800000001
 10
56.78933240013619
 20
51.88529800000001
 10
57.44973240013619
 20
51.88529800000001
  0
LWPOLYLINE
  5
10A
330
1F
100
AcDbEntity
  8
0
  6
Continuous
 62
     1
420
 16711680
370
    25
100
AcDbPolyline
 90
        5
 70
     1
 43
0.0
 10
57.44973240013619
 20
51.485299
 10
57.44973240013619
 20
51.713899
 10
56.78933240013619
 20
51.713899
 10
56.78933240013619
 20
51.485299
 10
57.44973240013619
 20
51.485299
  0
LWPOLYLINE
  5
10B
330
1F
100
AcDbEntity
  8
0
  6
Continuous
 62
     1
420
 16711680
370
    25
100
AcDbPolyline
 90
        5
 70
     1
 43
0.0
 10
57.44973240013619
 20
51.08529900000001
 10
57.44973240013619
 20
51.31389900000001
 10
56.78933240013619
 20
51.31389900000001
 10
56.78933240013619
 20
51.08529900000001
 10
57.44973240013619
 20
51.08529900000001
  0
LWPOLYLINE
  5
10C
330
1F
100
AcDbEntity
  8
0
  6
Continuous
 62
     1
420
 16711680
370
    25
100
AcDbPolyline
 90
        5
 70
     1
 43
0.0
 10
57.44973240013619
 20
50.68530000000001
 10
57.44973240013619
 20
50.91390000000001
 10
56.78933240013619
 20
50.91390000000001
 10
56.78933240013619
 20
50.68530000000001
 10
57.44973240013619
 20
50.68530000000001
  0
LWPOLYLINE
  5
10D
330
1F
100
AcDbEntity
  8
0
  6
Continuous
 62
     1
420
 16711680
370
    25
100
AcDbPolyline
 90
        5
 70
     1
 43
0.0
 10
57.44973240013619
 20
50.285301
 10
57.44973240013619
 20
50.513901
 10
56.78933240013619
 20
50.513901
 10
56.78933240013619
 20
50.285301
 10
57.44973240013619
 20
50.285301
  0
LWPOLYLINE
  5
10E
330
1F
100
AcDbEntity
  8
0
  6
Continuous
 62
     1
420
 16711680
370
    25
100
AcDbPolyline
 90
        5
 70
     1
 43
0.0
 10
57.44973240013619
 20
49.88530200000001
 10
57.44973240013619
 20
50.11390200000001
 10
56.78933240013619
 20
50.11390200000001
 10
56.78933240013619
 20
49.88530200000001
 10
57.44973240013619
 20
49.88530200000001
  0
LWPOLYLINE
  5
10F
330
1F
100
AcDbEntity
  8
0
  6
Continuous
 62
     1
420
 16711680
370
    25
100
AcDbPolyline
 90
        5
 70
     1
 43
0.0
 10
57.44973240013619
 20
49.48530300000002
 10
57.44973240013619
 20
49.71390300000001
 10
56.78933240013619
 20
49.71390300000001
 10
56.78933240013619
 20
49.48530300000002
 10
57.44973240013619
 20
49.48530300000002
  0
LWPOLYLINE
  5
110
330
1F
100
AcDbEntity
  8
0
  6
Continuous
 62
     1
420
 16711680
370
    25
100
AcDbPolyline
 90
        5
 70
     1
 43
0.0
 10
57.44973240013619
 20
49.08530300000001
 10
57.44973240013619
 20
49.31390300000001
 10
56.78933240013619
 20
49.31390300000001
 10
56.78933240013619
 20
49.08530300000001
 10
57.44973240013619
 20
49.08530300000001
  0
LWPOLYLINE
  5
111
330
1F
100
AcDbEntity
  8
0
  6
Continuous
 62
     1
420
 16711680
370
    25
100
AcDbPolyline
 90
        5
 70
     1
 43
0.0
 10
57.44973240013619
 20
48.685304
 10
57.44973240013619
 20
48.91390400000002
 10
56.78933240013619
 20
48.91390400000002
 10
56.78933240013619
 20
48.685304
 10
57.44973240013619
 20
48.685304
  0
LWPOLYLINE
  5
112
330
1F
100
AcDbEntity
  8
0
  6
Continuous
 62
     1
420
 16711680
370
    25
100
AcDbPolyline
 90
        5
 70
     1
 43
0.0
 10
57.44973240013619
 20
48.28530500000001
 10
57.44973240013619
 20
48.513905
 10
56.78933240013619
 20
48.513905
 10
56.78933240013619
 20
48.28530500000001
 10
57.44973240013619
 20
48.28530500000001
  0
LWPOLYLINE
  5
113
330
1F
100
AcDbEntity
  8
0
  6
Continuous
 62
     1
420
 16711680
370
    25
100
AcDbPolyline
 90
        5
 70
     1
 43
0.0
 10
57.44973240013619
 20
47.885306
 10
57.44973240013619
 20
48.113906
 10
56.78933240013619
 20
48.113906
 10
56.78933240013619
 20
47.885306
 10
57.44973240013619
 20
47.885306
  0
LWPOLYLINE
  5
114
330
1F
100
AcDbEntity
  8
0
  6
Continuous
 62
     1
420
 16711680
370
    25
100
AcDbPolyline
 90
        5
 70
     1
 43
0.0
 10
57.44973240013619
 20
47.48530700000001
 10
57.44973240013619
 20
47.71390700000001
 10
56.78933240013619
 20
47.71390700000001
 10
56.78933240013619
 20
47.48530700000001
 10
57.44973240013619
 20
47.48530700000001
  0
LWPOLYLINE
  5
115
330
1F
100
AcDbEntity
  8
0
  6
Continuous
 62
     1
420
 16711680
370
    25
100
AcDbPolyline
 90
        5
 70
     1
 43
0.0
 10
57.44973240013619
 20
47.08530700000001
 10
57.44973240013619
 20
47.313907
 10
56.78933240013619
 20
47.313907
 10
56.78933240013619
 20
47.08530700000001
 10
57.44973240013619
 20
47.08530700000001
  0
LWPOLYLINE
  5
116
330
1F
100
AcDbEntity
  8
0
  6
Continuous
 62
     1
420
 16711680
370
    25
100
AcDbPolyline
 90
        5
 70
     1
 43
0.0
 10
57.44973240013619
 20
46.68530800000001
 10
57.44973240013619
 20
46.91390800000001
 10
56.78933240013619
 20
46.91390800000001
 10
56.78933240013619
 20
46.68530800000001
 10
57.44973240013619
 20
46.68530800000001
  0
LWPOLYLINE
  5
117
330
1F
100
AcDbEntity
  8
0
  6
Continuous
 62
     1
420
 16711680
370
    25
100
AcDbPolyline
 90
        5
 70
     1
 43
0.0
 10
57.44973240013619
 20
46.285309
 10
57.44973240013619
 20
46.51390900000001
 10
56.78933240013619
 20
46.51390900000001
 10
56.78933240013619
 20
46.285309
 10
57.44973240013619
 20
46.285309
  0
LWPOLYLINE
  5
118
330
1F
100
AcDbEntity
  8
0
  6
Continuous
 62
     1
420
 16711680
370
    25
100
AcDbPolyline
 90
        5
 70
     1
 43
0.0
 10
57.44973240013619
 20
45.88531
 10
57.44973240013619
 20
46.11391
 10
56.78933240013619
 20
46.11391
 10
56.78933240013619
 20
45.88531
 10
57.44973240013619
 20
45.88531
  0
LWPOLYLINE
  5
119
330
1F
100
AcDbEntity
  8
0
  6
Continuous
 62
     1
420
 16711680
370
    25
100
AcDbPolyline
 90
        5
 70
     1
 43
0.0
 10
57.44973240013619
 20
45.48531100000001
 10
57.44973240013619
 20
45.71391100000001
 10
56.78933240013619
 20
45.71391100000001
 10
56.78933240013619
 20
45.48531100000001
 10
57.44973240013619
 20
45.48531100000001
  0
LWPOLYLINE
  5
11A
330
1F
100
AcDbEntity
  8
0
  6
Continuous
 62
     1
420
 16711680
370
    25
100
AcDbPolyline
 90
        5
 70
     1
 43
0.0
 10
57.44973240013619
 20
45.085311
 10
57.44973240013619
 20
45.313911
 10
56.78933240013619
 20
45.313911
 10
56.78933240013619
 20
45.085311
 10
57.44973240013619
 20
45.085311
  0
LWPOLYLINE
  5
11B
330
1F
100
AcDbEntity
  8
0
  6
Continuous
 62
     1
420
 16711680
370
    25
100
AcDbPolyline
 90
        5
 70
     1
 43
0.0
 10
57.44973240013619
 20
44.68531200000001
 10
57.44973240013619
 20
44.91391200000001
 10
56.78933240013619
 20
44.91391200000001
 10
56.78933240013619
 20
44.68531200000001
 10
57.44973240013619
 20
44.68531200000001
  0
LWPOLYLINE
  5
11C
330
1F
100
AcDbEntity
  8
0
  6
Continuous
 62
     1
420
 16711680
370
    25
100
AcDbPolyline
 90
        5
 70
     1
 43
0.0
 10
57.44973240013619
 20
44.28531300000001
 10
57.44973240013619
 20
44.513913
 10
56.78933240013619
 20
44.513913
 10
56.78933240013619
 20
44.28531300000001
 10
57.44973240013619
 20
44.28531300000001
  0
LWPOLYLINE
  5
11D
330
1F
100
AcDbEntity
  8
0
  6
Continuous
 62
     1
420
 16711680
370
    25
100
AcDbPolyline
 90
        5
 70
     1
 43
0.0
 10
57.44973240013619
 20
43.88531400000001
 10
57.44973240013619
 20
44.11391400000001
 10
56.78933240013619
 20
44.11391400000001
 10
56.78933240013619
 20
43.88531400000001
 10
57.44973240013619
 20
43.88531400000001
  0
LWPOLYLINE
  5
11E
330
1F
100
AcDbEntity
  8
0
  6
Continuous
 62
     1
420
 16711680
370
    25
100
AcDbPolyline
 90
        5
 70
     1
 43
0.0
 10
57.44973240013619
 20
43.48531500000001
 10
57.44973240013619
 20
43.713915
 10
56.78933240013619
 20
43.713915
 10
56.78933240013619
 20
43.48531500000001
 10
57.44973240013619
 20
43.48531500000001
  0
LWPOLYLINE
  5
11F
330
1F
100
AcDbEntity
  8
0
  6
Continuous
 62
     1
420
 16711680
370
    25
100
AcDbPolyline
 90
        5
 70
     1
 43
0.0
 10
57.44973240013619
 20
43.08531500000001
 10
57.44973240013619
 20
43.31391500000001
 10
56.78933240013619
 20
43.31391500000001
 10
56.78933240013619
 20
43.08531500000001
 10
57.44973240013619
 20
43.08531500000001
  0
LWPOLYLINE
  5
120
330
1F
100
AcDbEntity
  8
0
  6
Continuous
 62
     1
420
 16711680
370
    25
100
AcDbPolyline
 90
        5
 70
     1
 43
0.0
 10
57.44973240013619
 20
42.68531600000001
 10
57.44973240013619
 20
42.91391600000001
 10
56.78933240013619
 20
42.91391600000001
 10
56.78933240013619
 20
42.68531600000001
 10
57.44973240013619
 20
42.68531600000001
  0
LWPOLYLINE
  5
121
330
1F
100
AcDbEntity
  8
0
  6
Continuous
 62
     1
420
 16711680
370
    25
100
AcDbPolyline
 90
        5
 70
     1
 43
0.0
 10
57.44973240013619
 20
42.28531700000001
 10
57.44973240013619
 20
42.51391700000001
 10
56.78933240013619
 20
42.51391700000001
 10
56.78933240013619
 20
42.28531700000001
 10
57.44973240013619
 20
42.28531700000001
  0
LWPOLYLINE
  5
122
330
1F
100
AcDbEntity
  8
0
  6
Continuous
 62
     1
420
 16711680
370
    25
100
AcDbPolyline
 90
        5
 70
     1
 43
0.0
 10
57.44973240013619
 20
41.88531800000001
 10
57.44973240013619
 20
42.113918
 10
56.78933240013619
 20
42.113918
 10
56.78933240013619
 20
41.88531800000001
 10
57.44973240013619
 20
41.88531800000001
  0
LWPOLYLINE
  5
123
330
1F
100
AcDbEntity
  8
0
  6
Continuous
 62
     1
420
 16711680
370
    25
100
AcDbPolyline
 90
        5
 70
     1
 43
0.0
 10
57.44973240013619
 20
41.485319
 10
57.44973240013619
 20
41.713919
 10
56.78933240013619
 20
41.713919
 10
56.78933240013619
 20
41.485319
 10
57.44973240013619
 20
41.485319
  0
LWPOLYLINE
  5
124
330
1F
100
AcDbEntity
  8
0
  6
Continuous
 62
     1
420
 16711680
370
    25
100
AcDbPolyline
 90
        5
 70
     1
 43
0.0
 10
57.44973240013619
 20
41.085319
 10
57.44973240013619
 20
41.31391900000001
 10
56.78933240013619
 20
41.31391900000001
 10
56.78933240013619
 20
41.085319
 10
57.44973240013619
 20
41.085319
  0
LWPOLYLINE
  5
125
330
1F
100
AcDbEntity
  8
0
  6
Continuous
 62
     1
420
 16711680
370
    25
100
AcDbPolyline
 90
        5
 70
     1
 43
0.0
 10
57.44973240013619
 20
40.68529500000001
 10
57.44973240013619
 20
40.913895
 10
56.78933240013619
 20
40.913895
 10
56.78933240013619
 20
40.68529500000001
 10
57.44973240013619
 20
40.68529500000001
  0
LWPOLYLINE
  5
126
330
1F
100
AcDbEntity
  8
0
  6
Continuous
 62
     1
420
 16711680
370
    25
100
AcDbPolyline
 90
        5
 70
     1
 43
0.0
 10
57.44973240013619
 20
40.285296
 10
57.44973240013619
 20
40.51389600000001
 10
56.78933240013619
 20
40.51389600000001
 10
56.78933240013619
 20
40.285296
 10
57.44973240013619
 20
40.285296
  0
LWPOLYLINE
  5
127
330
1F
100
AcDbEntity
  8
0
  6
Continuous
 62
     1
420
 16711680
370
    25
100
AcDbPolyline
 90
        5
 70
     1
 43
0.0
 10
57.44973240013619
 20
39.885296
 10
57.44973240013619
 20
40.113896
 10
56.78933240013619
 20
40.113896
 10
56.78933240013619
 20
39.885296
 10
57.44973240013619
 20
39.885296
  0
LWPOLYLINE
  5
128
330
1F
100
AcDbEntity
  8
0
  6
Continuous
 62
     1
420
 16711680
370
    25
100
AcDbPolyline
 90
        5
 70
     1
 43
0.0
 10
57.44973240013619
 20
39.485297
 10
57.44973240013619
 20
39.713897
 10
56.78933240013619
 20
39.713897
 10
56.78933240013619
 20
39.485297
 10
57.44973240013619
 20
39.485297
  0
LWPOLYLINE
  5
129
330
1F
100
AcDbEntity
  8
0
  6
Continuous
 62
     1
420
 16711680
370
    25
100
AcDbPolyline
 90
        5
 70
     1
 43
0.0
 10
57.44973240013619
 20
39.08529800000001
 10
57.44973240013619
 20
39.31389800000001
 10
56.78933240013619
 20
39.31389800000001
 10
56.78933240013619
 20
39.08529800000001
 10
57.44973240013619
 20
39.08529800000001
  0
LWPOLYLINE
  5
12A
330
1F
100
AcDbEntity
  8
0
  6
Continuous
 62
     1
420
 16711680
370
    25
100
AcDbPolyline
 90
        5
 70
     1
 43
0.0
 10
57.44973240013619
 20
38.685299
 10
57.44973240013619
 20
38.91389900000001
 10
56.78933240013619
 20
38.91389900000001
 10
56.78933240013619
 20
38.685299
 10
57.44973240013619
 20
38.685299
  0
LWPOLYLINE
  5
12B
330
1F
100
AcDbEntity
  8
0
  6
Continuous
 62
     1
420
 16711680
370
    25
100
AcDbPolyline
 90
        5
 70
     1
 43
0.0
 10
57.44973240013619
 20
38.28530000000001
 10
57.44973240013619
 20
38.51390000000001
 10
56.78933240013619
 20
38.51390000000001
 10
56.78933240013619
 20
38.28530000000001
 10
57.44973240013619
 20
38.28530000000001
  0
LWPOLYLINE
  5
12C
330
1F
100
AcDbEntity
  8
0
  6
Continuous
 62
     1
420
 16711680
370
    25
100
AcDbPolyline
 90
        5
 70
     1
 43
0.0
 10
57.44973240013619
 20
37.88530000000001
 10
57.44973240013619
 20
38.1139
 10
56.78933240013619
 20
38.1139
 10
56.78933240013619
 20
37.88530000000001
 10
57.44973240013619
 20
37.88530000000001
  0
LWPOLYLINE
  5
12D
330
1F
100
AcDbEntity
  8
0
  6
Continuous
 62
     1
420
 16711680
370
    25
100
AcDbPolyline
 90
        5
 70
     1
 43
0.0
 10
57.44973240013619
 20
37.48530100000001
 10
57.44973240013619
 20
37.71390100000001
 10
56.78933240013619
 20
37.71390100000001
 10
56.78933240013619
 20
37.48530100000001
 10
57.44973240013619
 20
37.48530100000001
  0
LWPOLYLINE
  5
12E
330
1F
100
AcDbEntity
  8
0
  6
Continuous
 62
     1
420
 16711680
370
    25
100
AcDbPolyline
 90
        5
 70
     1
 43
0.0
 10
57.44973240013619
 20
33.39681600000001
 10
57.44973240013619
 20
33.752416
 10
56.78933240013619
 20
33.752416
 10
56.78933240013619
 20
33.39681600000001
 10
57.44973240013619
 20
33.39681600000001
  0
LWPOLYLINE
  5
12F
330
1F
100
AcDbEntity
  8
0
  6
Continuous
 62
     1
420
 16711680
370
    25
100
AcDbPolyline
 90
        5
 70
     1
 43
0.0
 10
54.73975540013618
 20
33.39681600000001
 10
54.73975540013618
 20
33.752416
 10
54.07935540013618
 20
33.752416
 10
54.07935540013618
 20
33.39681600000001
 10
54.73975540013618
 20
33.39681600000001
  0
LWPOLYLINE
  5
130
330
1F
100
AcDbEntity
  8
0
  6
Continuous
 62
     1
420
 16711680
370
    25
100
AcDbPolyline
 90
        5
 70
     1
 43
0.0
 10
54.73975540013618
 20
32.98531
 10
54.73975540013618
 20
33.21391000000001
 10
54.07935540013618
 20
33.21391000000001
 10
54.07935540013618
 20
32.98531
 10
54.73975540013618
 20
32.98531
  0
LWPOLYLINE
  5
131
330
1F
100
AcDbEntity
  8
0
  6
Continuous
 62
     1
420
 16711680
370
    25
100
AcDbPolyline
 90
        5
 70
     1
 43
0.0
 10
54.73975540013618
 20
32.585311
 10
54.73975540013618
 20
32.813911
 10
54.07935540013618
 20
32.813911
 10
54.07935540013618
 20
32.585311
 10
54.73975540013618
 20
32.585311
  0
LWPOLYLINE
  5
132
330
1F
100
AcDbEntity
  8
0
  6
Continuous
 62
     1
420
 16711680
370
    25
100
AcDbPolyline
 90
        5
 70
     1
 43
0.0
 10
54.73975540013618
 20
32.18531200000001
 10
54.73975540013618
 20
32.41391200000001
 10
54.07935540013618
 20
32.41391200000001
 10
54.07935540013618
 20
32.18531200000001
 10
54.73975540013618
 20
32.18531200000001
  0
LWPOLYLINE
  5
133
330
1F
100
AcDbEntity
  8
0
  6
Continuous
 62
     1
420
 16711680
370
    25
100
AcDbPolyline
 90
        5
 70
     1
 43
0.0
 10
54.73975540013618
 20
31.785313
 10
54.73975540013618
 20
32.013913
 10
54.07935540013618
 20
32.013913
 10
54.07935540013618
 20
31.785313
 10
54.73975540013618
 20
31.785313
  0
LWPOLYLINE
  5
134
330
1F
100
AcDbEntity
  8
0
  6
Continuous
 62
     1
420
 16711680
370
    25
100
AcDbPolyline
 90
        5
 70
     1
 43
0.0
 10
54.73975540013618
 20
31.385313
 10
54.73975540013618
 20
31.613913
 10
54.07935540013618
 20
31.613913
 10
54.07935540013618
 20
31.385313
 10
54.73975540013618
 20
31.385313
  0
LWPOLYLINE
  5
135
330
1F
100
AcDbEntity
  8
0
  6
Continuous
 62
     1
420
 16711680
370
    25
100
AcDbPolyline
 90
        5
 70
     1
 43
0.0
 10
54.73975540013618
 20
30.98531400000001
 10
54.73975540013618
 20
31.213914
 10
54.07935540013618
 20
31.213914
 10
54.07935540013618
 20
30.98531400000001
 10
54.73975540013618
 20
30.98531400000001
  0
LWPOLYLINE
  5
136
330
1F
100
AcDbEntity
  8
0
  6
Continuous
 62
     1
420
 16711680
370
    25
100
AcDbPolyline
 90
        5
 70
     1
 43
0.0
 10
54.73975540013618
 20
30.58531500000001
 10
54.73975540013618
 20
30.81391500000001
 10
54.07935540013618
 20
30.81391500000001
 10
54.07935540013618
 20
30.58531500000001
 10
54.73975540013618
 20
30.58531500000001
  0
LWPOLYLINE
  5
137
330
1F
100
AcDbEntity
  8
0
  6
Continuous
 62
     1
420
 16711680
370
    25
100
AcDbPolyline
 90
        5
 70
     1
 43
0.0
 10
54.73975540013618
 20
30.185316
 10
54.73975540013618
 20
30.41391600000001
 10
54.07935540013618
 20
30.41391600000001
 10
54.07935540013618
 20
30.185316
 10
54.73975540013618
 20
30.185316
  0
LWPOLYLINE
  5
138
330
1F
100
AcDbEntity
  8
0
  6
Continuous
 62
     1
420
 16711680
370
    25
100
AcDbPolyline
 90
        5
 70
     1
 43
0.0
 10
54.73975540013618
 20
29.78531700000001
 10
54.73975540013618
 20
30.01391700000001
 10
54.07935540013618
 20
30.01391700000001
 10
54.07935540013618
 20
29.78531700000001
 10
54.73975540013618
 20
29.78531700000001
  0
LWPOLYLINE
  5
139
330
1F
100
AcDbEntity
  8
0
  6
Continuous
 62
     1
420
 16711680
370
    25
100
AcDbPolyline
 90
        5
 70
     1
 43
0.0
 10
54.73975540013618
 20
29.38529200000001
 10
54.73975540013618
 20
29.61389200000001
 10
54.07935540013618
 20
29.61389200000001
 10
54.07935540013618
 20
29.38529200000001
 10
54.73975540013618
 20
29.38529200000001
  0
LWPOLYLINE
  5
13A
330
1F
100
AcDbEntity
  8
0
  6
Continuous
 62
     1
420
 16711680
370
    25
100
AcDbPolyline
 90
        5
 70
     1
 43
0.0
 10
54.73975540013618
 20
28.98529300000001
 10
54.73975540013618
 20
29.213893
 10
54.07935540013618
 20
29.213893
 10
54.07935540013618
 20
28.98529300000001
 10
54.73975540013618
 20
28.98529300000001
  0
LWPOLYLINE
  5
13B
330
1F
100
AcDbEntity
  8
0
  6
Continuous
 62
     1
420
 16711680
370
    25
100
AcDbPolyline
 90
        5
 70
     1
 43
0.0
 10
54.73975540013618
 20
28.585294
 10
54.73975540013618
 20
28.813894
 10
54.07935540013618
 20
28.813894
 10
54.07935540013618
 20
28.585294
 10
54.73975540013618
 20
28.585294
  0
LWPOLYLINE
  5
13C
330
1F
100
AcDbEntity
  8
0
  6
Continuous
 62
     1
420
 16711680
370
    25
100
AcDbPolyline
 90
        5
 70
     1
 43
0.0
 10
54.73975540013618
 20
28.18529400000001
 10
54.73975540013618
 20
28.41389400000001
 10
54.07935540013618
 20
28.41389400000001
 10
54.07935540013618
 20
28.18529400000001
 10
54.73975540013618
 20
28.18529400000001
  0
LWPOLYLINE
  5
13D
330
1F
100
AcDbEntity
  8
0
  6
Continuous
 62
     1
420
 16711680
370
    25
100
AcDbPolyline
 90
        5
 70
     1
 43
0.0
 10
54.73975540013618
 20
27.785295
 10
54.73975540013618
 20
28.01389500000001
 10
54.07935540013618
 20
28.01389500000001
 10
54.07935540013618
 20
27.785295
 10
54.73975540013618
 20
27.785295
  0
LWPOLYLINE
  5
13E
330
1F
100
AcDbEntity
  8
0
  6
Continuous
 62
     1
420
 16711680
370
    25
100
AcDbPolyline
 90
        5
 70
     1
 43
0.0
 10
54.73975540013618
 20
27.385296
 10
54.73975540013618
 20
27.613896
 10
54.07935540013618
 20
27.613896
 10
54.07935540013618
 20
27.385296
 10
54.73975540013618
 20
27.385296
  0
LWPOLYLINE
  5
13F
330
1F
100
AcDbEntity
  8
0
  6
Continuous
 62
     1
420
 16711680
370
    25
100
AcDbPolyline
 90
        5
 70
     1
 43
0.0
 10
54.73975540013618
 20
26.985297
 10
54.73975540013618
 20
27.21389700000001
 10
54.07935540013618
 20
27.21389700000001
 10
54.07935540013618
 20
26.985297
 10
54.73975540013618
 20
26.985297
  0
LWPOLYLINE
  5
140
330
1F
100
AcDbEntity
  8
0
  6
Continuous
 62
     1
420
 16711680
370
    25
100
AcDbPolyline
 90
        5
 70
     1
 43
0.0
 10
54.73975540013618
 20
26.585298
 10
54.73975540013618
 20
26.813898
 10
54.07935540013618
 20
26.813898
 10
54.07935540013618
 20
26.585298
 10
54.73975540013618
 20
26.585298
  0
LWPOLYLINE
  5
141
330
1F
100
AcDbEntity
  8
0
  6
Continuous
 62
     1
420
 16711680
370
    25
100
AcDbPolyline
 90
        5
 70
     1
 43
0.0
 10
54.73975540013618
 20
26.185298
 10
54.73975540013618
 20
26.413898
 10
54.07935540013618
 20
26.413898
 10
54.07935540013618
 20
26.185298
 10
54.73975540013618
 20
26.185298
  0
LWPOLYLINE
  5
142
330
1F
100
AcDbEntity
  8
0
  6
Continuous
 62
     1
420
 16711680
370
    25
100
AcDbPolyline
 90
        5
 70
     1
 43
0.0
 10
54.73975540013618
 20
25.785299
 10
54.73975540013618
 20
26.013899
 10
54.07935540013618
 20
26.013899
 10
54.07935540013618
 20
25.785299
 10
54.73975540013618
 20
25.785299
  0
LWPOLYLINE
  5
143
330
1F
100
AcDbEntity
  8
0
  6
Continuous
 62
     1
420
 16711680
370
    25
100
AcDbPolyline
 90
        5
 70
     1
 43
0.0
 10
54.73975540013618
 20
25.38530000000001
 10
54.73975540013618
 20
25.61390000000001
 10
54.07935540013618
 20
25.61390000000001
 10
54.07935540013618
 20
25.38530000000001
 10
54.73975540013618
 20
25.38530000000001
  0
LWPOLYLINE
  5
144
330
1F
100
AcDbEntity
  8
0
  6
Continuous
 62
     1
420
 16711680
370
    25
100
AcDbPolyline
 90
        5
 70
     1
 43
0.0
 10
54.73975540013618
 20
24.985301
 10
54.73975540013618
 20
25.21390100000001
 10
54.07935540013618
 20
25.21390100000001
 10
54.07935540013618
 20
24.985301
 10
54.73975540013618
 20
24.985301
  0
LWPOLYLINE
  5
145
330
1F
100
AcDbEntity
  8
0
  6
Continuous
 62
     1
420
 16711680
370
    25
100
AcDbPolyline
 90
        5
 70
     1
 43
0.0
 10
54.73975540013618
 20
24.58530200000001
 10
54.73975540013618
 20
24.81390200000001
 10
54.07935540013618
 20
24.81390200000001
 10
54.07935540013618
 20
24.58530200000001
 10
54.73975540013618
 20
24.58530200000001
  0
LWPOLYLINE
  5
146
330
1F
100
AcDbEntity
  8
0
  6
Continuous
 62
     1
420
 16711680
370
    25
100
AcDbPolyline
 90
        5
 70
     1
 43
0.0
 10
54.73975540013618
 20
24.18530200000001
 10
54.73975540013618
 20
24.413902
 10
54.07935540013618
 20
24.413902
 10
54.07935540013618
 20
24.18530200000001
 10
54.73975540013618
 20
24.18530200000001
  0
LWPOLYLINE
  5
147
330
1F
100
AcDbEntity
  8
0
  6
Continuous
 62
     1
420
 16711680
370
    25
100
AcDbPolyline
 90
        5
 70
     1
 43
0.0
 10
54.73975540013618
 20
23.78530300000001
 10
54.73975540013618
 20
24.01390300000001
 10
54.07935540013618
 20
24.01390300000001
 10
54.07935540013618
 20
23.78530300000001
 10
54.73975540013618
 20
23.78530300000001
  0
LWPOLYLINE
  5
148
330
1F
100
AcDbEntity
  8
0
  6
Continuous
 62
     1
420
 16711680
370
    25
100
AcDbPolyline
 90
        5
 70
     1
 43
0.0
 10
54.73975540013618
 20
23.38530400000001
 10
54.73975540013618
 20
23.61390400000001
 10
54.07935540013618
 20
23.61390400000001
 10
54.07935540013618
 20
23.38530400000001
 10
54.73975540013618
 20
23.38530400000001
  0
LWPOLYLINE
  5
149
330
1F
100
AcDbEntity
  8
0
  6
Continuous
 62
     1
420
 16711680
370
    25
100
AcDbPolyline
 90
        5
 70
     1
 43
0.0
 10
54.73975540013618
 20
22.985305
 10
54.73975540013618
 20
23.21390500000001
 10
54.07935540013618
 20
23.21390500000001
 10
54.07935540013618
 20
22.985305
 10
54.73975540013618
 20
22.985305
  0
LWPOLYLINE
  5
14A
330
1F
100
AcDbEntity
  8
0
  6
Continuous
 62
     1
420
 16711680
370
    25
100
AcDbPolyline
 90
        5
 70
     1
 43
0.0
 10
54.73975540013618
 20
22.585306
 10
54.73975540013618
 20
22.813906
 10
54.07935540013618
 20
22.813906
 10
54.07935540013618
 20
22.585306
 10
54.73975540013618
 20
22.585306
  0
LWPOLYLINE
  5
14B
330
1F
100
AcDbEntity
  8
0
  6
Continuous
 62
     1
420
 16711680
370
    25
100
AcDbPolyline
 90
        5
 70
     1
 43
0.0
 10
54.73975540013618
 20
22.185306
 10
54.73975540013618
 20
22.413906
 10
54.07935540013618
 20
22.413906
 10
54.07935540013618
 20
22.185306
 10
54.73975540013618
 20
22.185306
  0
LWPOLYLINE
  5
14C
330
1F
100
AcDbEntity
  8
0
  6
Continuous
 62
     1
420
 16711680
370
    25
100
AcDbPolyline
 90
        5
 70
     1
 43
0.0
 10
54.73975540013618
 20
21.785307
 10
54.73975540013618
 20
22.013907
 10
54.07935540013618
 20
22.013907
 10
54.07935540013618
 20
21.785307
 10
54.73975540013618
 20
21.785307
  0
LWPOLYLINE
  5
14D
330
1F
100
AcDbEntity
  8
0
  6
Continuous
 62
     1
420
 16711680
370
    25
100
AcDbPolyline
 90
        5
 70
     1
 43
0.0
 10
54.73975540013618
 20
21.38530800000001
 10
54.73975540013618
 20
21.61390800000001
 10
54.07935540013618
 20
21.61390800000001
 10
54.07935540013618
 20
21.38530800000001
 10
54.73975540013618
 20
21.38530800000001
  0
LWPOLYLINE
  5
14E
330
1F
100
AcDbEntity
  8
0
  6
Continuous
 62
     1
420
 16711680
370
    25
100
AcDbPolyline
 90
        5
 70
     1
 43
0.0
 10
54.73975540013618
 20
20.98530900000001
 10
54.73975540013618
 20
21.21390900000001
 10
54.07935540013618
 20
21.21390900000001
 10
54.07935540013618
 20
20.98530900000001
 10
54.73975540013618
 20
20.98530900000001
  0
LWPOLYLINE
  5
14F
330
1F
100
AcDbEntity
  8
0
  6
Continuous
 62
     1
420
 16711680
370
    25
100
AcDbPolyline
 90
        5
 70
     1
 43
0.0
 10
54.73975540013618
 20
20.58531000000001
 10
54.73975540013618
 20
20.81391000000001
 10
54.07935540013618
 20
20.81391000000001
 10
54.07935540013618
 20
20.58531000000001
 10
54.73975540013618
 20
20.58531000000001
  0
LWPOLYLINE
  5
150
330
1F
100
AcDbEntity
  8
0
  6
Continuous
 62
     1
420
 16711680
370
    25
100
AcDbPolyline
 90
        5
 70
     1
 43
0.0
 10
54.73975540013618
 20
20.18531
 10
54.73975540013618
 20
20.41391000000001
 10
54.07935540013618
 20
20.41391000000001
 10
54.07935540013618
 20
20.18531
 10
54.73975540013618
 20
20.18531
  0
LWPOLYLINE
  5
151
330
1F
100
AcDbEntity
  8
0
  6
Continuous
 62
     1
420
 16711680
370
    25
100
AcDbPolyline
 90
        5
 70
     1
 43
0.0
 10
54.73975540013618
 20
19.78531100000001
 10
54.73975540013618
 20
20.013911
 10
54.07935540013618
 20
20.013911
 10
54.07935540013618
 20
19.78531100000001
 10
54.73975540013618
 20
19.78531100000001
  0
LWPOLYLINE
  5
152
330
1F
100
AcDbEntity
  8
0
  6
Continuous
 62
     1
420
 16711680
370
    25
100
AcDbPolyline
 90
        5
 70
     1
 43
0.0
 10
54.73975540013618
 20
19.385312
 10
54.73975540013618
 20
19.613912
 10
54.07935540013618
 20
19.613912
 10
54.07935540013618
 20
19.385312
 10
54.73975540013618
 20
19.385312
  0
LWPOLYLINE
  5
153
330
1F
100
AcDbEntity
  8
0
  6
Continuous
 62
     1
420
 16711680
370
    25
100
AcDbPolyline
 90
        5
 70
     1
 43
0.0
 10
54.73975540013618
 20
18.985313
 10
54.73975540013618
 20
19.21391300000001
 10
54.07935540013618
 20
19.21391300000001
 10
54.07935540013618
 20
18.985313
 10
54.73975540013618
 20
18.985313
  0
LWPOLYLINE
  5
154
330
1F
100
AcDbEntity
  8
0
  6
Continuous
 62
     1
420
 16711680
370
    25
100
AcDbPolyline
 90
        5
 70
     1
 43
0.0
 10
54.73975540013618
 20
18.585314
 10
54.73975540013618
 20
18.813914
 10
54.07935540013618
 20
18.813914
 10
54.07935540013618
 20
18.585314
 10
54.73975540013618
 20
18.585314
  0
LWPOLYLINE
  5
155
330
1F
100
AcDbEntity
  8
0
  6
Continuous
 62
     1
420
 16711680
370
    25
100
AcDbPolyline
 90
        5
 70
     1
 43
0.0
 10
54.73975540013618
 20
18.18531400000001
 10
54.73975540013618
 20
18.41391400000001
 10
54.07935540013618
 20
18.41391400000001
 10
54.07935540013618
 20
18.18531400000001
 10
54.73975540013618
 20
18.18531400000001
  0
LWPOLYLINE
  5
156
330
1F
100
AcDbEntity
  8
0
  6
Continuous
 62
     1
420
 16711680
370
    25
100
AcDbPolyline
 90
        5
 70
     1
 43
0.0
 10
54.73975540013618
 20
17.785315
 10
54.73975540013618
 20
18.013915
 10
54.07935540013618
 20
18.013915
 10
54.07935540013618
 20
17.785315
 10
54.73975540013618
 20
17.785315
  0
LWPOLYLINE
  5
157
330
1F
100
AcDbEntity
  8
0
  6
Continuous
 62
     1
420
 16711680
370
    25
100
AcDbPolyline
 90
        5
 70
     1
 43
0.0
 10
54.73975540013618
 20
17.38531600000001
 10
54.73975540013618
 20
17.613916
 10
54.07935540013618
 20
17.613916
 10
54.07935540013618
 20
17.38531600000001
 10
54.73975540013618
 20
17.38531600000001
  0
LWPOLYLINE
  5
158
330
1F
100
AcDbEntity
  8
0
  6
Continuous
 62
     1
420
 16711680
370
    25
100
AcDbPolyline
 90
        5
 70
     1
 43
0.0
 10
54.73975540013618
 20
16.98531700000001
 10
54.73975540013618
 20
17.21391700000001
 10
54.07935540013618
 20
17.21391700000001
 10
54.07935540013618
 20
16.98531700000001
 10
54.73975540013618
 20
16.98531700000001
  0
LWPOLYLINE
  5
159
330
1F
100
AcDbEntity
  8
0
  6
Continuous
 62
     1
420
 16711680
370
    25
100
AcDbPolyline
 90
        5
 70
     1
 43
0.0
 10
54.73975540013618
 20
16.585292
 10
54.73975540013618
 20
16.813892
 10
54.07935540013618
 20
16.813892
 10
54.07935540013618
 20
16.585292
 10
54.73975540013618
 20
16.585292
  0
LWPOLYLINE
  5
15A
330
1F
100
AcDbEntity
  8
0
  6
Continuous
 62
     1
420
 16711680
370
    25
100
AcDbPolyline
 90
        5
 70
     1
 43
0.0
 10
54.73975540013618
 20
16.185293
 10
54.73975540013618
 20
16.41389300000001
 10
54.07935540013618
 20
16.41389300000001
 10
54.07935540013618
 20
16.185293
 10
54.73975540013618
 20
16.185293
  0
LWPOLYLINE
  5
15B
330
1F
100
AcDbEntity
  8
0
  6
Continuous
 62
     1
420
 16711680
370
    25
100
AcDbPolyline
 90
        5
 70
     1
 43
0.0
 10
54.73975540013618
 20
15.785294
 10
54.73975540013618
 20
16.013894
 10
54.07935540013618
 20
16.013894
 10
54.07935540013618
 20
15.785294
 10
54.73975540013618
 20
15.785294
  0
LWPOLYLINE
  5
15C
330
1F
100
AcDbEntity
  8
0
  6
Continuous
 62
     1
420
 16711680
370
    25
100
AcDbPolyline
 90
        5
 70
     1
 43
0.0
 10
54.73975540013618
 20
15.38529500000001
 10
54.73975540013618
 20
15.613895
 10
54.07935540013618
 20
15.613895
 10
54.07935540013618
 20
15.38529500000001
 10
54.73975540013618
 20
15.38529500000001
  0
LWPOLYLINE
  5
15D
330
1F
100
AcDbEntity
  8
0
  6
Continuous
 62
     1
420
 16711680
370
    25
100
AcDbPolyline
 90
        5
 70
     1
 43
0.0
 10
54.73975540013618
 20
14.98529500000001
 10
54.73975540013618
 20
15.213895
 10
54.07935540013618
 20
15.213895
 10
54.07935540013618
 20
14.98529500000001
 10
54.73975540013618
 20
14.98529500000001
  0
LWPOLYLINE
  5
15E
330
1F
100
AcDbEntity
  8
0
  6
Continuous
 62
     1
420
 16711680
370
    25
100
AcDbPolyline
 90
        5
 70
     1
 43
0.0
 10
54.73975540013618
 20
14.58529600000001
 10
54.73975540013618
 20
14.81389600000001
 10
54.07935540013618
 20
14.81389600000001
 10
54.07935540013618
 20
14.58529600000001
 10
54.73975540013618
 20
14.58529600000001
  0
LWPOLYLINE
  5
15F
330
1F
100
AcDbEntity
  8
0
  6
Continuous
 62
     1
420
 16711680
370
    25
100
AcDbPolyline
 90
        5
 70
     1
 43
0.0
 10
54.73975540013618
 20
14.18529700000001
 10
54.73975540013618
 20
14.41389700000001
 10
54.07935540013618
 20
14.41389700000001
 10
54.07935540013618
 20
14.18529700000001
 10
54.73975540013618
 20
14.18529700000001
  0
LWPOLYLINE
  5
160
330
1F
100
AcDbEntity
  8
0
  6
Continuous
 62
     1
420
 16711680
370
    25
100
AcDbPolyline
 90
        5
 70
     1
 43
0.0
 10
54.73975540013618
 20
13.78529800000001
 10
54.73975540013618
 20
14.013898
 10
54.07935540013618
 20
14.013898
 10
54.07935540013618
 20
13.78529800000001
 10
54.73975540013618
 20
13.78529800000001
  0
LWPOLYLINE
  5
161
330
1F
100
AcDbEntity
  8
0
  6
Continuous
 62
     1
420
 16711680
370
    25
100
AcDbPolyline
 90
        5
 70
     1
 43
0.0
 10
54.73975540013618
 20
13.385299
 10
54.73975540013618
 20
13.61389900000001
 10
54.07935540013618
 20
13.61389900000001
 10
54.07935540013618
 20
13.385299
 10
54.73975540013618
 20
13.385299
  0
LWPOLYLINE
  5
162
330
1F
100
AcDbEntity
  8
0
  6
Continuous
 62
     1
420
 16711680
370
    25
100
AcDbPolyline
 90
        5
 70
     1
 43
0.0
 10
54.73975540013618
 20
12.84679300000001
 10
54.73975540013618
 20
13.20239300000001
 10
54.07935540013618
 20
13.20239300000001
 10
54.07935540013618
 20
12.84679300000001
 10
54.73975540013618
 20
12.84679300000001
  0
LWPOLYLINE
  5
163
330
1F
100
AcDbEntity
  8
0
  6
Continuous
 62
     1
420
 16711680
370
    25
100
AcDbPolyline
 90
        5
 70
     1
 43
0.0
 10
57.44973240013619
 20
12.84679300000001
 10
57.44973240013619
 20
13.20239300000001
 10
56.78933240013619
 20
13.20239300000001
 10
56.78933240013619
 20
12.84679300000001
 10
57.44973240013619
 20
12.84679300000001
  0
LWPOLYLINE
  5
164
330
1F
100
AcDbEntity
  8
0
  6
Continuous
 62
     1
420
 16711680
370
    25
100
AcDbPolyline
 90
        5
 70
     1
 43
0.0
 10
57.44973240013619
 20
32.98531
 10
57.44973240013619
 20
33.21391000000001
 10
56.78933240013619
 20
33.21391000000001
 10
56.78933240013619
 20
32.98531
 10
57.44973240013619
 20
32.98531
  0
LWPOLYLINE
  5
165
330
1F
100
AcDbEntity
  8
0
  6
Continuous
 62
     1
420
 16711680
370
    25
100
AcDbPolyline
 90
        5
 70
     1
 43
0.0
 10
57.44973240013619
 20
32.585311
 10
57.44973240013619
 20
32.813911
 10
56.78933240013619
 20
32.813911
 10
56.78933240013619
 20
32.585311
 10
57.44973240013619
 20
32.585311
  0
LWPOLYLINE
  5
166
330
1F
100
AcDbEntity
  8
0
  6
Continuous
 62
     1
420
 16711680
370
    25
100
AcDbPolyline
 90
        5
 70
     1
 43
0.0
 10
57.44973240013619
 20
32.18531200000001
 10
57.44973240013619
 20
32.41391200000001
 10
56.78933240013619
 20
32.41391200000001
 10
56.78933240013619
 20
32.18531200000001
 10
57.44973240013619
 20
32.18531200000001
  0
LWPOLYLINE
  5
167
330
1F
100
AcDbEntity
  8
0
  6
Continuous
 62
     1
420
 16711680
370
    25
100
AcDbPolyline
 90
        5
 70
     1
 43
0.0
 10
57.44973240013619
 20
31.785313
 10
57.44973240013619
 20
32.013913
 10
56.78933240013619
 20
32.013913
 10
56.78933240013619
 20
31.785313
 10
57.44973240013619
 20
31.785313
  0
LWPOLYLINE
  5
168
330
1F
100
AcDbEntity
  8
0
  6
Continuous
 62
     1
420
 16711680
370
    25
100
AcDbPolyline
 90
        5
 70
     1
 43
0.0
 10
57.44973240013619
 20
31.385313
 10
57.44973240013619
 20
31.613913
 10
56.78933240013619
 20
31.613913
 10
56.78933240013619
 20
31.385313
 10
57.44973240013619
 20
31.385313
  0
LWPOLYLINE
  5
169
330
1F
100
AcDbEntity
  8
0
  6
Continuous
 62
     1
420
 16711680
370
    25
100
AcDbPolyline
 90
        5
 70
     1
 43
0.0
 10
57.44973240013619
 20
30.98531400000001
 10
57.44973240013619
 20
31.213914
 10
56.78933240013619
 20
31.213914
 10
56.78933240013619
 20
30.98531400000001
 10
57.44973240013619
 20
30.98531400000001
  0
LWPOLYLINE
  5
16A
330
1F
100
AcDbEntity
  8
0
  6
Continuous
 62
     1
420
 16711680
370
    25
100
AcDbPolyline
 90
        5
 70
     1
 43
0.0
 10
57.44973240013619
 20
30.58531500000001
 10
57.44973240013619
 20
30.81391500000001
 10
56.78933240013619
 20
30.81391500000001
 10
56.78933240013619
 20
30.58531500000001
 10
57.44973240013619
 20
30.58531500000001
  0
LWPOLYLINE
  5
16B
330
1F
100
AcDbEntity
  8
0
  6
Continuous
 62
     1
420
 16711680
370
    25
100
AcDbPolyline
 90
        5
 70
     1
 43
0.0
 10
57.44973240013619
 20
30.185316
 10
57.44973240013619
 20
30.41391600000001
 10
56.78933240013619
 20
30.41391600000001
 10
56.78933240013619
 20
30.185316
 10
57.44973240013619
 20
30.185316
  0
LWPOLYLINE
  5
16C
330
1F
100
AcDbEntity
  8
0
  6
Continuous
 62
     1
420
 16711680
370
    25
100
AcDbPolyline
 90
        5
 70
     1
 43
0.0
 10
57.44973240013619
 20
29.78531700000001
 10
57.44973240013619
 20
30.01391700000001
 10
56.78933240013619
 20
30.01391700000001
 10
56.78933240013619
 20
29.78531700000001
 10
57.44973240013619
 20
29.78531700000001
  0
LWPOLYLINE
  5
16D
330
1F
100
AcDbEntity
  8
0
  6
Continuous
 62
     1
420
 16711680
370
    25
100
AcDbPolyline
 90
        5
 70
     1
 43
0.0
 10
57.44973240013619
 20
29.38529200000001
 10
57.44973240013619
 20
29.61389200000001
 10
56.78933240013619
 20
29.61389200000001
 10
56.78933240013619
 20
29.38529200000001
 10
57.44973240013619
 20
29.38529200000001
  0
LWPOLYLINE
  5
16E
330
1F
100
AcDbEntity
  8
0
  6
Continuous
 62
     1
420
 16711680
370
    25
100
AcDbPolyline
 90
        5
 70
     1
 43
0.0
 10
57.44973240013619
 20
28.98529300000001
 10
57.44973240013619
 20
29.213893
 10
56.78933240013619
 20
29.213893
 10
56.78933240013619
 20
28.98529300000001
 10
57.44973240013619
 20
28.98529300000001
  0
LWPOLYLINE
  5
16F
330
1F
100
AcDbEntity
  8
0
  6
Continuous
 62
     1
420
 16711680
370
    25
100
AcDbPolyline
 90
        5
 70
     1
 43
0.0
 10
57.44973240013619
 20
28.585294
 10
57.44973240013619
 20
28.813894
 10
56.78933240013619
 20
28.813894
 10
56.78933240013619
 20
28.585294
 10
57.44973240013619
 20
28.585294
  0
LWPOLYLINE
  5
170
330
1F
100
AcDbEntity
  8
0
  6
Continuous
 62
     1
420
 16711680
370
    25
100
AcDbPolyline
 90
        5
 70
     1
 43
0.0
 10
57.44973240013619
 20
28.18529400000001
 10
57.44973240013619
 20
28.41389400000001
 10
56.78933240013619
 20
28.41389400000001
 10
56.78933240013619
 20
28.18529400000001
 10
57.44973240013619
 20
28.18529400000001
  0
LWPOLYLINE
  5
171
330
1F
100
AcDbEntity
  8
0
  6
Continuous
 62
     1
420
 16711680
370
    25
100
AcDbPolyline
 90
        5
 70
     1
 43
0.0
 10
57.44973240013619
 20
27.785295
 10
57.44973240013619
 20
28.01389500000001
 10
56.78933240013619
 20
28.01389500000001
 10
56.78933240013619
 20
27.785295
 10
57.44973240013619
 20
27.785295
  0
LWPOLYLINE
  5
172
330
1F
100
AcDbEntity
  8
0
  6
Continuous
 62
     1
420
 16711680
370
    25
100
AcDbPolyline
 90
        5
 70
     1
 43
0.0
 10
57.44973240013619
 20
27.385296
 10
57.44973240013619
 20
27.613896
 10
56.78933240013619
 20
27.613896
 10
56.78933240013619
 20
27.385296
 10
57.44973240013619
 20
27.385296
  0
LWPOLYLINE
  5
173
330
1F
100
AcDbEntity
  8
0
  6
Continuous
 62
     1
420
 16711680
370
    25
100
AcDbPolyline
 90
        5
 70
     1
 43
0.0
 10
57.44973240013619
 20
26.985297
 10
57.44973240013619
 20
27.21389700000001
 10
56.78933240013619
 20
27.21389700000001
 10
56.78933240013619
 20
26.985297
 10
57.44973240013619
 20
26.985297
  0
LWPOLYLINE
  5
174
330
1F
100
AcDbEntity
  8
0
  6
Continuous
 62
     1
420
 16711680
370
    25
100
AcDbPolyline
 90
        5
 70
     1
 43
0.0
 10
57.44973240013619
 20
26.585298
 10
57.44973240013619
 20
26.813898
 10
56.78933240013619
 20
26.813898
 10
56.78933240013619
 20
26.585298
 10
57.44973240013619
 20
26.585298
  0
LWPOLYLINE
  5
175
330
1F
100
AcDbEntity
  8
0
  6
Continuous
 62
     1
420
 16711680
370
    25
100
AcDbPolyline
 90
        5
 70
     1
 43
0.0
 10
57.44973240013619
 20
26.185298
 10
57.44973240013619
 20
26.413898
 10
56.78933240013619
 20
26.413898
 10
56.78933240013619
 20
26.185298
 10
57.44973240013619
 20
26.185298
  0
LWPOLYLINE
  5
176
330
1F
100
AcDbEntity
  8
0
  6
Continuous
 62
     1
420
 16711680
370
    25
100
AcDbPolyline
 90
        5
 70
     1
 43
0.0
 10
57.44973240013619
 20
25.785299
 10
57.44973240013619
 20
26.013899
 10
56.78933240013619
 20
26.013899
 10
56.78933240013619
 20
25.785299
 10
57.44973240013619
 20
25.785299
  0
LWPOLYLINE
  5
177
330
1F
100
AcDbEntity
  8
0
  6
Continuous
 62
     1
420
 16711680
370
    25
100
AcDbPolyline
 90
        5
 70
     1
 43
0.0
 10
57.44973240013619
 20
25.38530000000001
 10
57.44973240013619
 20
25.61390000000001
 10
56.78933240013619
 20
25.61390000000001
 10
56.78933240013619
 20
25.38530000000001
 10
57.44973240013619
 20
25.38530000000001
  0
LWPOLYLINE
  5
178
330
1F
100
AcDbEntity
  8
0
  6
Continuous
 62
     1
420
 16711680
370
    25
100
AcDbPolyline
 90
        5
 70
     1
 43
0.0
 10
57.44973240013619
 20
24.985301
 10
57.44973240013619
 20
25.21390100000001
 10
56.78933240013619
 20
25.21390100000001
 10
56.78933240013619
 20
24.985301
 10
57.44973240013619
 20
24.985301
  0
LWPOLYLINE
  5
179
330
1F
100
AcDbEntity
  8
0
  6
Continuous
 62
     1
420
 16711680
370
    25
100
AcDbPolyline
 90
        5
 70
     1
 43
0.0
 10
57.44973240013619
 20
24.58530200000001
 10
57.44973240013619
 20
24.81390200000001
 10
56.78933240013619
 20
24.81390200000001
 10
56.78933240013619
 20
24.58530200000001
 10
57.44973240013619
 20
24.58530200000001
  0
LWPOLYLINE
  5
17A
330
1F
100
AcDbEntity
  8
0
  6
Continuous
 62
     1
420
 16711680
370
    25
100
AcDbPolyline
 90
        5
 70
     1
 43
0.0
 10
57.44973240013619
 20
24.18530200000001
 10
57.44973240013619
 20
24.413902
 10
56.78933240013619
 20
24.413902
 10
56.78933240013619
 20
24.18530200000001
 10
57.44973240013619
 20
24.18530200000001
  0
LWPOLYLINE
  5
17B
330
1F
100
AcDbEntity
  8
0
  6
Continuous
 62
     1
420
 16711680
370
    25
100
AcDbPolyline
 90
        5
 70
     1
 43
0.0
 10
57.44973240013619
 20
23.78530300000001
 10
57.44973240013619
 20
24.01390300000001
 10
56.78933240013619
 20
24.01390300000001
 10
56.78933240013619
 20
23.78530300000001
 10
57.44973240013619
 20
23.78530300000001
  0
LWPOLYLINE
  5
17C
330
1F
100
AcDbEntity
  8
0
  6
Continuous
 62
     1
420
 16711680
370
    25
100
AcDbPolyline
 90
        5
 70
     1
 43
0.0
 10
57.44973240013619
 20
23.38530400000001
 10
57.44973240013619
 20
23.61390400000001
 10
56.78933240013619
 20
23.61390400000001
 10
56.78933240013619
 20
23.38530400000001
 10
57.44973240013619
 20
23.38530400000001
  0
LWPOLYLINE
  5
17D
330
1F
100
AcDbEntity
  8
0
  6
Continuous
 62
     1
420
 16711680
370
    25
100
AcDbPolyline
 90
        5
 70
     1
 43
0.0
 10
57.44973240013619
 20
22.985305
 10
57.44973240013619
 20
23.21390500000001
 10
56.78933240013619
 20
23.21390500000001
 10
56.78933240013619
 20
22.985305
 10
57.44973240013619
 20
22.985305
  0
LWPOLYLINE
  5
17E
330
1F
100
AcDbEntity
  8
0
  6
Continuous
 62
     1
420
 16711680
370
    25
100
AcDbPolyline
 90
        5
 70
     1
 43
0.0
 10
57.44973240013619
 20
22.585306
 10
57.44973240013619
 20
22.813906
 10
56.78933240013619
 20
22.813906
 10
56.78933240013619
 20
22.585306
 10
57.44973240013619
 20
22.585306
  0
LWPOLYLINE
  5
17F
330
1F
100
AcDbEntity
  8
0
  6
Continuous
 62
     1
420
 16711680
370
    25
100
AcDbPolyline
 90
        5
 70
     1
 43
0.0
 10
57.44973240013619
 20
22.185306
 10
57.44973240013619
 20
22.413906
 10
56.78933240013619
 20
22.413906
 10
56.78933240013619
 20
22.185306
 10
57.44973240013619
 20
22.185306
  0
LWPOLYLINE
  5
180
330
1F
100
AcDbEntity
  8
0
  6
Continuous
 62
     1
420
 16711680
370
    25
100
AcDbPolyline
 90
        5
 70
     1
 43
0.0
 10
57.44973240013619
 20
21.785307
 10
57.44973240013619
 20
22.013907
 10
56.78933240013619
 20
22.013907
 10
56.78933240013619
 20
21.785307
 10
57.44973240013619
 20
21.785307
  0
LWPOLYLINE
  5
181
330
1F
100
AcDbEntity
  8
0
  6
Continuous
 62
     1
420
 16711680
370
    25
100
AcDbPolyline
 90
        5
 70
     1
 43
0.0
 10
57.44973240013619
 20
21.38530800000001
 10
57.44973240013619
 20
21.61390800000001
 10
56.78933240013619
 20
21.61390800000001
 10
56.78933240013619
 20
21.38530800000001
 10
57.44973240013619
 20
21.38530800000001
  0
LWPOLYLINE
  5
182
330
1F
100
AcDbEntity
  8
0
  6
Continuous
 62
     1
420
 16711680
370
    25
100
AcDbPolyline
 90
        5
 70
     1
 43
0.0
 10
57.44973240013619
 20
20.98530900000001
 10
57.44973240013619
 20
21.21390900000001
 10
56.78933240013619
 20
21.21390900000001
 10
56.78933240013619
 20
20.98530900000001
 10
57.44973240013619
 20
20.98530900000001
  0
LWPOLYLINE
  5
183
330
1F
100
AcDbEntity
  8
0
  6
Continuous
 62
     1
420
 16711680
370
    25
100
AcDbPolyline
 90
        5
 70
     1
 43
0.0
 10
57.44973240013619
 20
20.58531000000001
 10
57.44973240013619
 20
20.81391000000001
 10
56.78933240013619
 20
20.81391000000001
 10
56.78933240013619
 20
20.58531000000001
 10
57.44973240013619
 20
20.58531000000001
  0
LWPOLYLINE
  5
184
330
1F
100
AcDbEntity
  8
0
  6
Continuous
 62
     1
420
 16711680
370
    25
100
AcDbPolyline
 90
        5
 70
     1
 43
0.0
 10
57.44973240013619
 20
20.18531
 10
57.44973240013619
 20
20.41391000000001
 10
56.78933240013619
 20
20.41391000000001
 10
56.78933240013619
 20
20.18531
 10
57.44973240013619
 20
20.18531
  0
LWPOLYLINE
  5
185
330
1F
100
AcDbEntity
  8
0
  6
Continuous
 62
     1
420
 16711680
370
    25
100
AcDbPolyline
 90
        5
 70
     1
 43
0.0
 10
57.44973240013619
 20
19.78531100000001
 10
57.44973240013619
 20
20.013911
 10
56.78933240013619
 20
20.013911
 10
56.78933240013619
 20
19.78531100000001
 10
57.44973240013619
 20
19.78531100000001
  0
LWPOLYLINE
  5
186
330
1F
100
AcDbEntity
  8
0
  6
Continuous
 62
     1
420
 16711680
370
    25
100
AcDbPolyline
 90
        5
 70
     1
 43
0.0
 10
57.44973240013619
 20
19.385312
 10
57.44973240013619
 20
19.613912
 10
56.78933240013619
 20
19.613912
 10
56.78933240013619
 20
19.385312
 10
57.44973240013619
 20
19.385312
  0
LWPOLYLINE
  5
187
330
1F
100
AcDbEntity
  8
0
  6
Continuous
 62
     1
420
 16711680
370
    25
100
AcDbPolyline
 90
        5
 70
     1
 43
0.0
 10
57.44973240013619
 20
18.985313
 10
57.44973240013619
 20
19.21391300000001
 10
56.78933240013619
 20
19.21391300000001
 10
56.78933240013619
 20
18.985313
 10
57.44973240013619
 20
18.985313
  0
LWPOLYLINE
  5
188
330
1F
100
AcDbEntity
  8
0
  6
Continuous
 62
     1
420
 16711680
370
    25
100
AcDbPolyline
 90
        5
 70
     1
 43
0.0
 10
57.44973240013619
 20
18.585314
 10
57.44973240013619
 20
18.813914
 10
56.78933240013619
 20
18.813914
 10
56.78933240013619
 20
18.585314
 10
57.44973240013619
 20
18.585314
  0
LWPOLYLINE
  5
189
330
1F
100
AcDbEntity
  8
0
  6
Continuous
 62
     1
420
 16711680
370
    25
100
AcDbPolyline
 90
        5
 70
     1
 43
0.0
 10
57.44973240013619
 20
18.18531400000001
 10
57.44973240013619
 20
18.41391400000001
 10
56.78933240013619
 20
18.41391400000001
 10
56.78933240013619
 20
18.18531400000001
 10
57.44973240013619
 20
18.18531400000001
  0
LWPOLYLINE
  5
18A
330
1F
100
AcDbEntity
  8
0
  6
Continuous
 62
     1
420
 16711680
370
    25
100
AcDbPolyline
 90
        5
 70
     1
 43
0.0
 10
57.44973240013619
 20
17.785315
 10
57.44973240013619
 20
18.013915
 10
56.78933240013619
 20
18.013915
 10
56.78933240013619
 20
17.785315
 10
57.44973240013619
 20
17.785315
  0
LWPOLYLINE
  5
18B
330
1F
100
AcDbEntity
  8
0
  6
Continuous
 62
     1
420
 16711680
370
    25
100
AcDbPolyline
 90
        5
 70
     1
 43
0.0
 10
57.44973240013619
 20
17.38531600000001
 10
57.44973240013619
 20
17.613916
 10
56.78933240013619
 20
17.613916
 10
56.78933240013619
 20
17.38531600000001
 10
57.44973240013619
 20
17.38531600000001
  0
LWPOLYLINE
  5
18C
330
1F
100
AcDbEntity
  8
0
  6
Continuous
 62
     1
420
 16711680
370
    25
100
AcDbPolyline
 90
        5
 70
     1
 43
0.0
 10
57.44973240013619
 20
16.98531700000001
 10
57.44973240013619
 20
17.21391700000001
 10
56.78933240013619
 20
17.21391700000001
 10
56.78933240013619
 20
16.98531700000001
 10
57.44973240013619
 20
16.98531700000001
  0
LWPOLYLINE
  5
18D
330
1F
100
AcDbEntity
  8
0
  6
Continuous
 62
     1
420
 16711680
370
    25
100
AcDbPolyline
 90
        5
 70
     1
 43
0.0
 10
57.44973240013619
 20
16.585292
 10
57.44973240013619
 20
16.813892
 10
56.78933240013619
 20
16.813892
 10
56.78933240013619
 20
16.585292
 10
57.44973240013619
 20
16.585292
  0
LWPOLYLINE
  5
18E
330
1F
100
AcDbEntity
  8
0
  6
Continuous
 62
     1
420
 16711680
370
    25
100
AcDbPolyline
 90
        5
 70
     1
 43
0.0
 10
57.44973240013619
 20
16.185293
 10
57.44973240013619
 20
16.41389300000001
 10
56.78933240013619
 20
16.41389300000001
 10
56.78933240013619
 20
16.185293
 10
57.44973240013619
 20
16.185293
  0
LWPOLYLINE
  5
18F
330
1F
100
AcDbEntity
  8
0
  6
Continuous
 62
     1
420
 16711680
370
    25
100
AcDbPolyline
 90
        5
 70
     1
 43
0.0
 10
57.44973240013619
 20
15.785294
 10
57.44973240013619
 20
16.013894
 10
56.78933240013619
 20
16.013894
 10
56.78933240013619
 20
15.785294
 10
57.44973240013619
 20
15.785294
  0
LWPOLYLINE
  5
190
330
1F
100
AcDbEntity
  8
0
  6
Continuous
 62
     1
420
 16711680
370
    25
100
AcDbPolyline
 90
        5
 70
     1
 43
0.0
 10
57.44973240013619
 20
15.38529500000001
 10
57.44973240013619
 20
15.613895
 10
56.78933240013619
 20
15.613895
 10
56.78933240013619
 20
15.38529500000001
 10
57.44973240013619
 20
15.38529500000001
  0
LWPOLYLINE
  5
191
330
1F
100
AcDbEntity
  8
0
  6
Continuous
 62
     1
420
 16711680
370
    25
100
AcDbPolyline
 90
        5
 70
     1
 43
0.0
 10
57.44973240013619
 20
14.98529500000001
 10
57.44973240013619
 20
15.213895
 10
56.78933240013619
 20
15.213895
 10
56.78933240013619
 20
14.98529500000001
 10
57.44973240013619
 20
14.98529500000001
  0
LWPOLYLINE
  5
192
330
1F
100
AcDbEntity
  8
0
  6
Continuous
 62
     1
420
 16711680
370
    25
100
AcDbPolyline
 90
        5
 70
     1
 43
0.0
 10
57.44973240013619
 20
14.58529600000001
 10
57.44973240013619
 20
14.81389600000001
 10
56.78933240013619
 20
14.81389600000001
 10
56.78933240013619
 20
14.58529600000001
 10
57.44973240013619
 20
14.58529600000001
  0
LWPOLYLINE
  5
193
330
1F
100
AcDbEntity
  8
0
  6
Continuous
 62
     1
420
 16711680
370
    25
100
AcDbPolyline
 90
        5
 70
     1
 43
0.0
 10
57.44973240013619
 20
14.18529700000001
 10
57.44973240013619
 20
14.41389700000001
 10
56.78933240013619
 20
14.41389700000001
 10
56.78933240013619
 20
14.18529700000001
 10
57.44973240013619
 20
14.18529700000001
  0
LWPOLYLINE
  5
194
330
1F
100
AcDbEntity
  8
0
  6
Continuous
 62
     1
420
 16711680
370
    25
100
AcDbPolyline
 90
        5
 70
     1
 43
0.0
 10
57.44973240013619
 20
13.78529800000001
 10
57.44973240013619
 20
14.013898
 10
56.78933240013619
 20
14.013898
 10
56.78933240013619
 20
13.78529800000001
 10
57.44973240013619
 20
13.78529800000001
  0
LWPOLYLINE
  5
195
330
1F
100
AcDbEntity
  8
0
  6
Continuous
 62
     1
420
 16711680
370
    25
100
AcDbPolyline
 90
        5
 70
     1
 43
0.0
 10
57.44973240013619
 20
13.385299
 10
57.44973240013619
 20
13.61389900000001
 10
56.78933240013619
 20
13.61389900000001
 10
56.78933240013619
 20
13.385299
 10
57.44973240013619
 20
13.385299
  0
LWPOLYLINE
  5
196
330
1F
100
AcDbEntity
  8
0
  6
Continuous
 62
     1
420
 16711680
370
    25
100
AcDbPolyline
 90
        5
 70
     1
 43
0.0
 10
8.159736400136183
 20
33.39681600000001
 10
8.159736400136183
 20
33.752416
 10
7.499336400136182
 20
33.752416
 10
7.499336400136182
 20
33.39681600000001
 10
8.159736400136183
 20
33.39681600000001
  0
LWPOLYLINE
  5
197
330
1F
100
AcDbEntity
  8
0
  6
Continuous
 62
     1
420
 16711680
370
    25
100
AcDbPolyline
 90
        5
 70
     1
 43
0.0
 10
5.449759400136182
 20
33.39681600000001
 10
5.449759400136182
 20
33.752416
 10
4.789359400136182
 20
33.752416
 10
4.789359400136182
 20
33.39681600000001
 10
5.449759400136182
 20
33.39681600000001
  0
LWPOLYLINE
  5
198
330
1F
100
AcDbEntity
  8
0
  6
Continuous
 62
     1
420
 16711680
370
    25
100
AcDbPolyline
 90
        5
 70
     1
 43
0.0
 10
5.449759400136182
 20
32.98531
 10
5.449759400136182
 20
33.21391000000001
 10
4.789359400136182
 20
33.21391000000001
 10
4.789359400136182
 20
32.98531
 10
5.449759400136182
 20
32.98531
  0
LWPOLYLINE
  5
199
330
1F
100
AcDbEntity
  8
0
  6
Continuous
 62
     1
420
 16711680
370
    25
100
AcDbPolyline
 90
        5
 70
     1
 43
0.0
 10
5.449759400136182
 20
32.585311
 10
5.449759400136182
 20
32.813911
 10
4.789359400136182
 20
32.813911
 10
4.789359400136182
 20
32.585311
 10
5.449759400136182
 20
32.585311
  0
LWPOLYLINE
  5
19A
330
1F
100
AcDbEntity
  8
0
  6
Continuous
 62
     1
420
 16711680
370
    25
100
AcDbPolyline
 90
        5
 70
     1
 43
0.0
 10
5.449759400136182
 20
32.18531200000001
 10
5.449759400136182
 20
32.41391200000001
 10
4.789359400136182
 20
32.41391200000001
 10
4.789359400136182
 20
32.18531200000001
 10
5.449759400136182
 20
32.18531200000001
  0
LWPOLYLINE
  5
19B
330
1F
100
AcDbEntity
  8
0
  6
Continuous
 62
     1
420
 16711680
370
    25
100
AcDbPolyline
 90
        5
 70
     1
 43
0.0
 10
5.449759400136182
 20
31.785313
 10
5.449759400136182
 20
32.013913
 10
4.789359400136182
 20
32.013913
 10
4.789359400136182
 20
31.785313
 10
5.449759400136182
 20
31.785313
  0
LWPOLYLINE
  5
19C
330
1F
100
AcDbEntity
  8
0
  6
Continuous
 62
     1
420
 16711680
370
    25
100
AcDbPolyline
 90
        5
 70
     1
 43
0.0
 10
5.449759400136182
 20
31.385313
 10
5.449759400136182
 20
31.613913
 10
4.789359400136182
 20
31.613913
 10
4.789359400136182
 20
31.385313
 10
5.449759400136182
 20
31.385313
  0
LWPOLYLINE
  5
19D
330
1F
100
AcDbEntity
  8
0
  6
Continuous
 62
     1
420
 16711680
370
    25
100
AcDbPolyline
 90
        5
 70
     1
 43
0.0
 10
5.449759400136182
 20
30.98531400000001
 10
5.449759400136182
 20
31.213914
 10
4.789359400136182
 20
31.213914
 10
4.789359400136182
 20
30.98531400000001
 10
5.449759400136182
 20
30.98531400000001
  0
LWPOLYLINE
  5
19E
330
1F
100
AcDbEntity
  8
0
  6
Continuous
 62
     1
420
 16711680
370
    25
100
AcDbPolyline
 90
        5
 70
     1
 43
0.0
 10
5.449759400136182
 20
30.58531500000001
 10
5.449759400136182
 20
30.81391500000001
 10
4.789359400136182
 20
30.81391500000001
 10
4.789359400136182
 20
30.58531500000001
 10
5.449759400136182
 20
30.58531500000001
  0
LWPOLYLINE
  5
19F
330
1F
100
AcDbEntity
  8
0
  6
Continuous
 62
     1
420
 16711680
370
    25
100
AcDbPolyline
 90
        5
 70
     1
 43
0.0
 10
5.449759400136182
 20
30.185316
 10
5.449759400136182
 20
30.41391600000001
 10
4.789359400136182
 20
30.41391600000001
 10
4.789359400136182
 20
30.185316
 10
5.449759400136182
 20
30.185316
  0
LWPOLYLINE
  5
1A0
330
1F
100
AcDbEntity
  8
0
  6
Continuous
 62
     1
420
 16711680
370
    25
100
AcDbPolyline
 90
        5
 70
     1
 43
0.0
 10
5.449759400136182
 20
29.78531700000001
 10
5.449759400136182
 20
30.01391700000001
 10
4.789359400136182
 20
30.01391700000001
 10
4.789359400136182
 20
29.78531700000001
 10
5.449759400136182
 20
29.78531700000001
  0
LWPOLYLINE
  5
1A1
330
1F
100
AcDbEntity
  8
0
  6
Continuous
 62
     1
420
 16711680
370
    25
100
AcDbPolyline
 90
        5
 70
     1
 43
0.0
 10
5.449759400136182
 20
29.38529200000001
 10
5.449759400136182
 20
29.61389200000001
 10
4.789359400136182
 20
29.61389200000001
 10
4.789359400136182
 20
29.38529200000001
 10
5.449759400136182
 20
29.38529200000001
  0
LWPOLYLINE
  5
1A2
330
1F
100
AcDbEntity
  8
0
  6
Continuous
 62
     1
420
 16711680
370
    25
100
AcDbPolyline
 90
        5
 70
     1
 43
0.0
 10
5.449759400136182
 20
28.98529300000001
 10
5.449759400136182
 20
29.213893
 10
4.789359400136182
 20
29.213893
 10
4.789359400136182
 20
28.98529300000001
 10
5.449759400136182
 20
28.98529300000001
  0
LWPOLYLINE
  5
1A3
330
1F
100
AcDbEntity
  8
0
  6
Continuous
 62
     1
420
 16711680
370
    25
100
AcDbPolyline
 90
        5
 70
     1
 43
0.0
 10
5.449759400136182
 20
28.585294
 10
5.449759400136182
 20
28.813894
 10
4.789359400136182
 20
28.813894
 10
4.789359400136182
 20
28.585294
 10
5.449759400136182
 20
28.585294
  0
LWPOLYLINE
  5
1A4
330
1F
100
AcDbEntity
  8
0
  6
Continuous
 62
     1
420
 16711680
370
    25
100
AcDbPolyline
 90
        5
 70
     1
 43
0.0
 10
5.449759400136182
 20
28.18529400000001
 10
5.449759400136182
 20
28.41389400000001
 10
4.789359400136182
 20
28.41389400000001
 10
4.789359400136182
 20
28.18529400000001
 10
5.449759400136182
 20
28.18529400000001
  0
LWPOLYLINE
  5
1A5
330
1F
100
AcDbEntity
  8
0
  6
Continuous
 62
     1
420
 16711680
370
    25
100
AcDbPolyline
 90
        5
 70
     1
 43
0.0
 10
5.449759400136182
 20
27.785295
 10
5.449759400136182
 20
28.01389500000001
 10
4.789359400136182
 20
28.01389500000001
 10
4.789359400136182
 20
27.785295
 10
5.449759400136182
 20
27.785295
  0
LWPOLYLINE
  5
1A6
330
1F
100
AcDbEntity
  8
0
  6
Continuous
 62
     1
420
 16711680
370
    25
100
AcDbPolyline
 90
        5
 70
     1
 43
0.0
 10
5.449759400136182
 20
27.385296
 10
5.449759400136182
 20
27.613896
 10
4.789359400136182
 20
27.613896
 10
4.789359400136182
 20
27.385296
 10
5.449759400136182
 20
27.385296
  0
LWPOLYLINE
  5
1A7
330
1F
100
AcDbEntity
  8
0
  6
Continuous
 62
     1
420
 16711680
370
    25
100
AcDbPolyline
 90
        5
 70
     1
 43
0.0
 10
5.449759400136182
 20
26.985297
 10
5.449759400136182
 20
27.21389700000001
 10
4.789359400136182
 20
27.21389700000001
 10
4.789359400136182
 20
26.985297
 10
5.449759400136182
 20
26.985297
  0
LWPOLYLINE
  5
1A8
330
1F
100
AcDbEntity
  8
0
  6
Continuous
 62
     1
420
 16711680
370
    25
100
AcDbPolyline
 90
        5
 70
     1
 43
0.0
 10
5.449759400136182
 20
26.585298
 10
5.449759400136182
 20
26.813898
 10
4.789359400136182
 20
26.813898
 10
4.789359400136182
 20
26.585298
 10
5.449759400136182
 20
26.585298
  0
LWPOLYLINE
  5
1A9
330
1F
100
AcDbEntity
  8
0
  6
Continuous
 62
     1
420
 16711680
370
    25
100
AcDbPolyline
 90
        5
 70
     1
 43
0.0
 10
5.449759400136182
 20
26.185298
 10
5.449759400136182
 20
26.413898
 10
4.789359400136182
 20
26.413898
 10
4.789359400136182
 20
26.185298
 10
5.449759400136182
 20
26.185298
  0
LWPOLYLINE
  5
1AA
330
1F
100
AcDbEntity
  8
0
  6
Continuous
 62
     1
420
 16711680
370
    25
100
AcDbPolyline
 90
        5
 70
     1
 43
0.0
 10
5.449759400136182
 20
25.785299
 10
5.449759400136182
 20
26.013899
 10
4.789359400136182
 20
26.013899
 10
4.789359400136182
 20
25.785299
 10
5.449759400136182
 20
25.785299
  0
LWPOLYLINE
  5
1AB
330
1F
100
AcDbEntity
  8
0
  6
Continuous
 62
     1
420
 16711680
370
    25
100
AcDbPolyline
 90
        5
 70
     1
 43
0.0
 10
5.449759400136182
 20
25.38530000000001
 10
5.449759400136182
 20
25.61390000000001
 10
4.789359400136182
 20
25.61390000000001
 10
4.789359400136182
 20
25.38530000000001
 10
5.449759400136182
 20
25.38530000000001
  0
LWPOLYLINE
  5
1AC
330
1F
100
AcDbEntity
  8
0
  6
Continuous
 62
     1
420
 16711680
370
    25
100
AcDbPolyline
 90
        5
 70
     1
 43
0.0
 10
5.449759400136182
 20
24.985301
 10
5.449759400136182
 20
25.21390100000001
 10
4.789359400136182
 20
25.21390100000001
 10
4.789359400136182
 20
24.985301
 10
5.449759400136182
 20
24.985301
  0
LWPOLYLINE
  5
1AD
330
1F
100
AcDbEntity
  8
0
  6
Continuous
 62
     1
420
 16711680
370
    25
100
AcDbPolyline
 90
        5
 70
     1
 43
0.0
 10
5.449759400136182
 20
24.58530200000001
 10
5.449759400136182
 20
24.81390200000001
 10
4.789359400136182
 20
24.81390200000001
 10
4.789359400136182
 20
24.58530200000001
 10
5.449759400136182
 20
24.58530200000001
  0
LWPOLYLINE
  5
1AE
330
1F
100
AcDbEntity
  8
0
  6
Continuous
 62
     1
420
 16711680
370
    25
100
AcDbPolyline
 90
        5
 70
     1
 43
0.0
 10
5.449759400136182
 20
24.18530200000001
 10
5.449759400136182
 20
24.413902
 10
4.789359400136182
 20
24.413902
 10
4.789359400136182
 20
24.18530200000001
 10
5.449759400136182
 20
24.18530200000001
  0
LWPOLYLINE
  5
1AF
330
1F
100
AcDbEntity
  8
0
  6
Continuous
 62
     1
420
 16711680
370
    25
100
AcDbPolyline
 90
        5
 70
     1
 43
0.0
 10
5.449759400136182
 20
23.78530300000001
 10
5.449759400136182
 20
24.01390300000001
 10
4.789359400136182
 20
24.01390300000001
 10
4.789359400136182
 20
23.78530300000001
 10
5.449759400136182
 20
23.78530300000001
  0
LWPOLYLINE
  5
1B0
330
1F
100
AcDbEntity
  8
0
  6
Continuous
 62
     1
420
 16711680
370
    25
100
AcDbPolyline
 90
        5
 70
     1
 43
0.0
 10
5.449759400136182
 20
23.38530400000001
 10
5.449759400136182
 20
23.61390400000001
 10
4.789359400136182
 20
23.61390400000001
 10
4.789359400136182
 20
23.38530400000001
 10
5.449759400136182
 20
23.38530400000001
  0
LWPOLYLINE
  5
1B1
330
1F
100
AcDbEntity
  8
0
  6
Continuous
 62
     1
420
 16711680
370
    25
100
AcDbPolyline
 90
        5
 70
     1
 43
0.0
 10
5.449759400136182
 20
22.985305
 10
5.449759400136182
 20
23.21390500000001
 10
4.789359400136182
 20
23.21390500000001
 10
4.789359400136182
 20
22.985305
 10
5.449759400136182
 20
22.985305
  0
LWPOLYLINE
  5
1B2
330
1F
100
AcDbEntity
  8
0
  6
Continuous
 62
     1
420
 16711680
370
    25
100
AcDbPolyline
 90
        5
 70
     1
 43
0.0
 10
5.449759400136182
 20
22.585306
 10
5.449759400136182
 20
22.813906
 10
4.789359400136182
 20
22.813906
 10
4.789359400136182
 20
22.585306
 10
5.449759400136182
 20
22.585306
  0
LWPOLYLINE
  5
1B3
330
1F
100
AcDbEntity
  8
0
  6
Continuous
 62
     1
420
 16711680
370
    25
100
AcDbPolyline
 90
        5
 70
     1
 43
0.0
 10
5.449759400136182
 20
22.185306
 10
5.449759400136182
 20
22.413906
 10
4.789359400136182
 20
22.413906
 10
4.789359400136182
 20
22.185306
 10
5.449759400136182
 20
22.185306
  0
LWPOLYLINE
  5
1B4
330
1F
100
AcDbEntity
  8
0
  6
Continuous
 62
     1
420
 16711680
370
    25
100
AcDbPolyline
 90
        5
 70
     1
 43
0.0
 10
5.449759400136182
 20
21.785307
 10
5.449759400136182
 20
22.013907
 10
4.789359400136182
 20
22.013907
 10
4.789359400136182
 20
21.785307
 10
5.449759400136182
 20
21.785307
  0
LWPOLYLINE
  5
1B5
330
1F
100
AcDbEntity
  8
0
  6
Continuous
 62
     1
420
 16711680
370
    25
100
AcDbPolyline
 90
        5
 70
     1
 43
0.0
 10
5.449759400136182
 20
21.38530800000001
 10
5.449759400136182
 20
21.61390800000001
 10
4.789359400136182
 20
21.61390800000001
 10
4.789359400136182
 20
21.38530800000001
 10
5.449759400136182
 20
21.38530800000001
  0
LWPOLYLINE
  5
1B6
330
1F
100
AcDbEntity
  8
0
  6
Continuous
 62
     1
420
 16711680
370
    25
100
AcDbPolyline
 90
        5
 70
     1
 43
0.0
 10
5.449759400136182
 20
20.98530900000001
 10
5.449759400136182
 20
21.21390900000001
 10
4.789359400136182
 20
21.21390900000001
 10
4.789359400136182
 20
20.98530900000001
 10
5.449759400136182
 20
20.98530900000001
  0
LWPOLYLINE
  5
1B7
330
1F
100
AcDbEntity
  8
0
  6
Continuous
 62
     1
420
 16711680
370
    25
100
AcDbPolyline
 90
        5
 70
     1
 43
0.0
 10
5.449759400136182
 20
20.58531000000001
 10
5.449759400136182
 20
20.81391000000001
 10
4.789359400136182
 20
20.81391000000001
 10
4.789359400136182
 20
20.58531000000001
 10
5.449759400136182
 20
20.58531000000001
  0
LWPOLYLINE
  5
1B8
330
1F
100
AcDbEntity
  8
0
  6
Continuous
 62
     1
420
 16711680
370
    25
100
AcDbPolyline
 90
        5
 70
     1
 43
0.0
 10
5.449759400136182
 20
20.18531
 10
5.449759400136182
 20
20.41391000000001
 10
4.789359400136182
 20
20.41391000000001
 10
4.789359400136182
 20
20.18531
 10
5.449759400136182
 20
20.18531
  0
LWPOLYLINE
  5
1B9
330
1F
100
AcDbEntity
  8
0
  6
Continuous
 62
     1
420
 16711680
370
    25
100
AcDbPolyline
 90
        5
 70
     1
 43
0.0
 10
5.449759400136182
 20
19.78531100000001
 10
5.449759400136182
 20
20.013911
 10
4.789359400136182
 20
20.013911
 10
4.789359400136182
 20
19.78531100000001
 10
5.449759400136182
 20
19.78531100000001
  0
LWPOLYLINE
  5
1BA
330
1F
100
AcDbEntity
  8
0
  6
Continuous
 62
     1
420
 16711680
370
    25
100
AcDbPolyline
 90
        5
 70
     1
 43
0.0
 10
5.449759400136182
 20
19.385312
 10
5.449759400136182
 20
19.613912
 10
4.789359400136182
 20
19.613912
 10
4.789359400136182
 20
19.385312
 10
5.449759400136182
 20
19.385312
  0
LWPOLYLINE
  5
1BB
330
1F
100
AcDbEntity
  8
0
  6
Continuous
 62
     1
420
 16711680
370
    25
100
AcDbPolyline
 90
        5
 70
     1
 43
0.0
 10
5.449759400136182
 20
18.985313
 10
5.449759400136182
 20
19.21391300000001
 10
4.789359400136182
 20
19.21391300000001
 10
4.789359400136182
 20
18.985313
 10
5.449759400136182
 20
18.985313
  0
LWPOLYLINE
  5
1BC
330
1F
100
AcDbEntity
  8
0
  6
Continuous
 62
     1
420
 16711680
370
    25
100
AcDbPolyline
 90
        5
 70
     1
 43
0.0
 10
5.449759400136182
 20
18.585314
 10
5.449759400136182
 20
18.813914
 10
4.789359400136182
 20
18.813914
 10
4.789359400136182
 20
18.585314
 10
5.449759400136182
 20
18.585314
  0
LWPOLYLINE
  5
1BD
330
1F
100
AcDbEntity
  8
0
  6
Continuous
 62
     1
420
 16711680
370
    25
100
AcDbPolyline
 90
        5
 70
     1
 43
0.0
 10
5.449759400136182
 20
18.18531400000001
 10
5.449759400136182
 20
18.41391400000001
 10
4.789359400136182
 20
18.41391400000001
 10
4.789359400136182
 20
18.18531400000001
 10
5.449759400136182
 20
18.18531400000001
  0
LWPOLYLINE
  5
1BE
330
1F
100
AcDbEntity
  8
0
  6
Continuous
 62
     1
420
 16711680
370
    25
100
AcDbPolyline
 90
        5
 70
     1
 43
0.0
 10
5.449759400136182
 20
17.785315
 10
5.449759400136182
 20
18.013915
 10
4.789359400136182
 20
18.013915
 10
4.789359400136182
 20
17.785315
 10
5.449759400136182
 20
17.785315
  0
LWPOLYLINE
  5
1BF
330
1F
100
AcDbEntity
  8
0
  6
Continuous
 62
     1
420
 16711680
370
    25
100
AcDbPolyline
 90
        5
 70
     1
 43
0.0
 10
5.449759400136182
 20
17.38531600000001
 10
5.449759400136182
 20
17.613916
 10
4.789359400136182
 20
17.613916
 10
4.789359400136182
 20
17.38531600000001
 10
5.449759400136182
 20
17.38531600000001
  0
LWPOLYLINE
  5
1C0
330
1F
100
AcDbEntity
  8
0
  6
Continuous
 62
     1
420
 16711680
370
    25
100
AcDbPolyline
 90
        5
 70
     1
 43
0.0
 10
5.449759400136182
 20
16.98531700000001
 10
5.449759400136182
 20
17.21391700000001
 10
4.789359400136182
 20
17.21391700000001
 10
4.789359400136182
 20
16.98531700000001
 10
5.449759400136182
 20
16.98531700000001
  0
LWPOLYLINE
  5
1C1
330
1F
100
AcDbEntity
  8
0
  6
Continuous
 62
     1
420
 16711680
370
    25
100
AcDbPolyline
 90
        5
 70
     1
 43
0.0
 10
5.449759400136182
 20
16.585292
 10
5.449759400136182
 20
16.813892
 10
4.789359400136182
 20
16.813892
 10
4.789359400136182
 20
16.585292
 10
5.449759400136182
 20
16.585292
  0
LWPOLYLINE
  5
1C2
330
1F
100
AcDbEntity
  8
0
  6
Continuous
 62
     1
420
 16711680
370
    25
100
AcDbPolyline
 90
        5
 70
     1
 43
0.0
 10
5.449759400136182
 20
16.185293
 10
5.449759400136182
 20
16.41389300000001
 10
4.789359400136182
 20
16.41389300000001
 10
4.789359400136182
 20
16.185293
 10
5.449759400136182
 20
16.185293
  0
LWPOLYLINE
  5
1C3
330
1F
100
AcDbEntity
  8
0
  6
Continuous
 62
     1
420
 16711680
370
    25
100
AcDbPolyline
 90
        5
 70
     1
 43
0.0
 10
5.449759400136182
 20
15.785294
 10
5.449759400136182
 20
16.013894
 10
4.789359400136182
 20
16.013894
 10
4.789359400136182
 20
15.785294
 10
5.449759400136182
 20
15.785294
  0
LWPOLYLINE
  5
1C4
330
1F
100
AcDbEntity
  8
0
  6
Continuous
 62
     1
420
 16711680
370
    25
100
AcDbPolyline
 90
        5
 70
     1
 43
0.0
 10
5.449759400136182
 20
15.38529500000001
 10
5.449759400136182
 20
15.613895
 10
4.789359400136182
 20
15.613895
 10
4.789359400136182
 20
15.38529500000001
 10
5.449759400136182
 20
15.38529500000001
  0
LWPOLYLINE
  5
1C5
330
1F
100
AcDbEntity
  8
0
  6
Continuous
 62
     1
420
 16711680
370
    25
100
AcDbPolyline
 90
        5
 70
     1
 43
0.0
 10
5.449759400136182
 20
14.98529500000001
 10
5.449759400136182
 20
15.213895
 10
4.789359400136182
 20
15.213895
 10
4.789359400136182
 20
14.98529500000001
 10
5.449759400136182
 20
14.98529500000001
  0
LWPOLYLINE
  5
1C6
330
1F
100
AcDbEntity
  8
0
  6
Continuous
 62
     1
420
 16711680
370
    25
100
AcDbPolyline
 90
        5
 70
     1
 43
0.0
 10
5.449759400136182
 20
14.58529600000001
 10
5.449759400136182
 20
14.81389600000001
 10
4.789359400136182
 20
14.81389600000001
 10
4.789359400136182
 20
14.58529600000001
 10
5.449759400136182
 20
14.58529600000001
  0
LWPOLYLINE
  5
1C7
330
1F
100
AcDbEntity
  8
0
  6
Continuous
 62
     1
420
 16711680
370
    25
100
AcDbPolyline
 90
        5
 70
     1
 43
0.0
 10
5.449759400136182
 20
14.18529700000001
 10
5.449759400136182
 20
14.41389700000001
 10
4.789359400136182
 20
14.41389700000001
 10
4.789359400136182
 20
14.18529700000001
 10
5.449759400136182
 20
14.18529700000001
  0
LWPOLYLINE
  5
1C8
330
1F
100
AcDbEntity
  8
0
  6
Continuous
 62
     1
420
 16711680
370
    25
100
AcDbPolyline
 90
        5
 70
     1
 43
0.0
 10
5.449759400136182
 20
13.78529800000001
 10
5.449759400136182
 20
14.013898
 10
4.789359400136182
 20
14.013898
 10
4.789359400136182
 20
13.78529800000001
 10
5.449759400136182
 20
13.78529800000001
  0
LWPOLYLINE
  5
1C9
330
1F
100
AcDbEntity
  8
0
  6
Continuous
 62
     1
420
 16711680
370
    25
100
AcDbPolyline
 90
        5
 70
     1
 43
0.0
 10
5.449759400136182
 20
13.385299
 10
5.449759400136182
 20
13.61389900000001
 10
4.789359400136182
 20
13.61389900000001
 10
4.789359400136182
 20
13.385299
 10
5.449759400136182
 20
13.385299
  0
LWPOLYLINE
  5
1CA
330
1F
100
AcDbEntity
  8
0
  6
Continuous
 62
     1
420
 16711680
370
    25
100
AcDbPolyline
 90
        5
 70
     1
 43
0.0
 10
5.449759400136182
 20
12.84679300000001
 10
5.449759400136182
 20
13.20239300000001
 10
4.789359400136182
 20
13.20239300000001
 10
4.789359400136182
 20
12.84679300000001
 10
5.449759400136182
 20
12.84679300000001
  0
LWPOLYLINE
  5
1CB
330
1F
100
AcDbEntity
  8
0
  6
Continuous
 62
     1
420
 16711680
370
    25
100
AcDbPolyline
 90
        5
 70
     1
 43
0.0
 10
8.159736400136183
 20
12.84679300000001
 10
8.159736400136183
 20
13.20239300000001
 10
7.499336400136182
 20
13.20239300000001
 10
7.499336400136182
 20
12.84679300000001
 10
8.159736400136183
 20
12.84679300000001
  0
LWPOLYLINE
  5
1CC
330
1F
100
AcDbEntity
  8
0
  6
Continuous
 62
     1
420
 16711680
370
    25
100
AcDbPolyline
 90
        5
 70
     1
 43
0.0
 10
8.159736400136183
 20
32.98531
 10
8.159736400136183
 20
33.21391000000001
 10
7.499336400136182
 20
33.21391000000001
 10
7.499336400136182
 20
32.98531
 10
8.159736400136183
 20
32.98531
  0
LWPOLYLINE
  5
1CD
330
1F
100
AcDbEntity
  8
0
  6
Continuous
 62
     1
420
 16711680
370
    25
100
AcDbPolyline
 90
        5
 70
     1
 43
0.0
 10
8.159736400136183
 20
32.585311
 10
8.159736400136183
 20
32.813911
 10
7.499336400136182
 20
32.813911
 10
7.499336400136182
 20
32.585311
 10
8.159736400136183
 20
32.585311
  0
LWPOLYLINE
  5
1CE
330
1F
100
AcDbEntity
  8
0
  6
Continuous
 62
     1
420
 16711680
370
    25
100
AcDbPolyline
 90
        5
 70
     1
 43
0.0
 10
8.159736400136183
 20
32.18531200000001
 10
8.159736400136183
 20
32.41391200000001
 10
7.499336400136182
 20
32.41391200000001
 10
7.499336400136182
 20
32.18531200000001
 10
8.159736400136183
 20
32.18531200000001
  0
LWPOLYLINE
  5
1CF
330
1F
100
AcDbEntity
  8
0
  6
Continuous
 62
     1
420
 16711680
370
    25
100
AcDbPolyline
 90
        5
 70
     1
 43
0.0
 10
8.159736400136183
 20
31.785313
 10
8.159736400136183
 20
32.013913
 10
7.499336400136182
 20
32.013913
 10
7.499336400136182
 20
31.785313
 10
8.159736400136183
 20
31.785313
  0
LWPOLYLINE
  5
1D0
330
1F
100
AcDbEntity
  8
0
  6
Continuous
 62
     1
420
 16711680
370
    25
100
AcDbPolyline
 90
        5
 70
     1
 43
0.0
 10
8.159736400136183
 20
31.385313
 10
8.159736400136183
 20
31.613913
 10
7.499336400136182
 20
31.613913
 10
7.499336400136182
 20
31.385313
 10
8.159736400136183
 20
31.385313
  0
LWPOLYLINE
  5
1D1
330
1F
100
AcDbEntity
  8
0
  6
Continuous
 62
     1
420
 16711680
370
    25
100
AcDbPolyline
 90
        5
 70
     1
 43
0.0
 10
8.159736400136183
 20
30.98531400000001
 10
8.159736400136183
 20
31.213914
 10
7.499336400136182
 20
31.213914
 10
7.499336400136182
 20
30.98531400000001
 10
8.159736400136183
 20
30.98531400000001
  0
LWPOLYLINE
  5
1D2
330
1F
100
AcDbEntity
  8
0
  6
Continuous
 62
     1
420
 16711680
370
    25
100
AcDbPolyline
 90
        5
 70
     1
 43
0.0
 10
8.159736400136183
 20
30.58531500000001
 10
8.159736400136183
 20
30.81391500000001
 10
7.499336400136182
 20
30.81391500000001
 10
7.499336400136182
 20
30.58531500000001
 10
8.159736400136183
 20
30.58531500000001
  0
LWPOLYLINE
  5
1D3
330
1F
100
AcDbEntity
  8
0
  6
Continuous
 62
     1
420
 16711680
370
    25
100
AcDbPolyline
 90
        5
 70
     1
 43
0.0
 10
8.159736400136183
 20
30.185316
 10
8.159736400136183
 20
30.41391600000001
 10
7.499336400136182
 20
30.41391600000001
 10
7.499336400136182
 20
30.185316
 10
8.159736400136183
 20
30.185316
  0
LWPOLYLINE
  5
1D4
330
1F
100
AcDbEntity
  8
0
  6
Continuous
 62
     1
420
 16711680
370
    25
100
AcDbPolyline
 90
        5
 70
     1
 43
0.0
 10
8.159736400136183
 20
29.78531700000001
 10
8.159736400136183
 20
30.01391700000001
 10
7.499336400136182
 20
30.01391700000001
 10
7.499336400136182
 20
29.78531700000001
 10
8.159736400136183
 20
29.78531700000001
  0
LWPOLYLINE
  5
1D5
330
1F
100
AcDbEntity
  8
0
  6
Continuous
 62
     1
420
 16711680
370
    25
100
AcDbPolyline
 90
        5
 70
     1
 43
0.0
 10
8.159736400136183
 20
29.38529200000001
 10
8.159736400136183
 20
29.61389200000001
 10
7.499336400136182
 20
29.61389200000001
 10
7.499336400136182
 20
29.38529200000001
 10
8.159736400136183
 20
29.38529200000001
  0
LWPOLYLINE
  5
1D6
330
1F
100
AcDbEntity
  8
0
  6
Continuous
 62
     1
420
 16711680
370
    25
100
AcDbPolyline
 90
        5
 70
     1
 43
0.0
 10
8.159736400136183
 20
28.98529300000001
 10
8.159736400136183
 20
29.213893
 10
7.499336400136182
 20
29.213893
 10
7.499336400136182
 20
28.98529300000001
 10
8.159736400136183
 20
28.98529300000001
  0
LWPOLYLINE
  5
1D7
330
1F
100
AcDbEntity
  8
0
  6
Continuous
 62
     1
420
 16711680
370
    25
100
AcDbPolyline
 90
        5
 70
     1
 43
0.0
 10
8.159736400136183
 20
28.585294
 10
8.159736400136183
 20
28.813894
 10
7.499336400136182
 20
28.813894
 10
7.499336400136182
 20
28.585294
 10
8.159736400136183
 20
28.585294
  0
LWPOLYLINE
  5
1D8
330
1F
100
AcDbEntity
  8
0
  6
Continuous
 62
     1
420
 16711680
370
    25
100
AcDbPolyline
 90
        5
 70
     1
 43
0.0
 10
8.159736400136183
 20
28.18529400000001
 10
8.159736400136183
 20
28.41389400000001
 10
7.499336400136182
 20
28.41389400000001
 10
7.499336400136182
 20
28.18529400000001
 10
8.159736400136183
 20
28.18529400000001
  0
LWPOLYLINE
  5
1D9
330
1F
100
AcDbEntity
  8
0
  6
Continuous
 62
     1
420
 16711680
370
    25
100
AcDbPolyline
 90
        5
 70
     1
 43
0.0
 10
8.159736400136183
 20
27.785295
 10
8.159736400136183
 20
28.01389500000001
 10
7.499336400136182
 20
28.01389500000001
 10
7.499336400136182
 20
27.785295
 10
8.159736400136183
 20
27.785295
  0
LWPOLYLINE
  5
1DA
330
1F
100
AcDbEntity
  8
0
  6
Continuous
 62
     1
420
 16711680
370
    25
100
AcDbPolyline
 90
        5
 70
     1
 43
0.0
 10
8.159736400136183
 20
27.385296
 10
8.159736400136183
 20
27.613896
 10
7.499336400136182
 20
27.613896
 10
7.499336400136182
 20
27.385296
 10
8.159736400136183
 20
27.385296
  0
LWPOLYLINE
  5
1DB
330
1F
100
AcDbEntity
  8
0
  6
Continuous
 62
     1
420
 16711680
370
    25
100
AcDbPolyline
 90
        5
 70
     1
 43
0.0
 10
8.159736400136183
 20
26.985297
 10
8.159736400136183
 20
27.21389700000001
 10
7.499336400136182
 20
27.21389700000001
 10
7.499336400136182
 20
26.985297
 10
8.159736400136183
 20
26.985297
  0
LWPOLYLINE
  5
1DC
330
1F
100
AcDbEntity
  8
0
  6
Continuous
 62
     1
420
 16711680
370
    25
100
AcDbPolyline
 90
        5
 70
     1
 43
0.0
 10
8.159736400136183
 20
26.585298
 10
8.159736400136183
 20
26.813898
 10
7.499336400136182
 20
26.813898
 10
7.499336400136182
 20
26.585298
 10
8.159736400136183
 20
26.585298
  0
LWPOLYLINE
  5
1DD
330
1F
100
AcDbEntity
  8
0
  6
Continuous
 62
     1
420
 16711680
370
    25
100
AcDbPolyline
 90
        5
 70
     1
 43
0.0
 10
8.159736400136183
 20
26.185298
 10
8.159736400136183
 20
26.413898
 10
7.499336400136182
 20
26.413898
 10
7.499336400136182
 20
26.185298
 10
8.159736400136183
 20
26.185298
  0
LWPOLYLINE
  5
1DE
330
1F
100
AcDbEntity
  8
0
  6
Continuous
 62
     1
420
 16711680
370
    25
100
AcDbPolyline
 90
        5
 70
     1
 43
0.0
 10
8.159736400136183
 20
25.785299
 10
8.159736400136183
 20
26.013899
 10
7.499336400136182
 20
26.013899
 10
7.499336400136182
 20
25.785299
 10
8.159736400136183
 20
25.785299
  0
LWPOLYLINE
  5
1DF
330
1F
100
AcDbEntity
  8
0
  6
Continuous
 62
     1
420
 16711680
370
    25
100
AcDbPolyline
 90
        5
 70
     1
 43
0.0
 10
8.159736400136183
 20
25.38530000000001
 10
8.159736400136183
 20
25.61390000000001
 10
7.499336400136182
 20
25.61390000000001
 10
7.499336400136182
 20
25.38530000000001
 10
8.159736400136183
 20
25.38530000000001
  0
LWPOLYLINE
  5
1E0
330
1F
100
AcDbEntity
  8
0
  6
Continuous
 62
     1
420
 16711680
370
    25
100
AcDbPolyline
 90
        5
 70
     1
 43
0.0
 10
8.159736400136183
 20
24.985301
 10
8.159736400136183
 20
25.21390100000001
 10
7.499336400136182
 20
25.21390100000001
 10
7.499336400136182
 20
24.985301
 10
8.159736400136183
 20
24.985301
  0
LWPOLYLINE
  5
1E1
330
1F
100
AcDbEntity
  8
0
  6
Continuous
 62
     1
420
 16711680
370
    25
100
AcDbPolyline
 90
        5
 70
     1
 43
0.0
 10
8.159736400136183
 20
24.58530200000001
 10
8.159736400136183
 20
24.81390200000001
 10
7.499336400136182
 20
24.81390200000001
 10
7.499336400136182
 20
24.58530200000001
 10
8.159736400136183
 20
24.58530200000001
  0
LWPOLYLINE
  5
1E2
330
1F
100
AcDbEntity
  8
0
  6
Continuous
 62
     1
420
 16711680
370
    25
100
AcDbPolyline
 90
        5
 70
     1
 43
0.0
 10
8.159736400136183
 20
24.18530200000001
 10
8.159736400136183
 20
24.413902
 10
7.499336400136182
 20
24.413902
 10
7.499336400136182
 20
24.18530200000001
 10
8.159736400136183
 20
24.18530200000001
  0
LWPOLYLINE
  5
1E3
330
1F
100
AcDbEntity
  8
0
  6
Continuous
 62
     1
420
 16711680
370
    25
100
AcDbPolyline
 90
        5
 70
     1
 43
0.0
 10
8.159736400136183
 20
23.78530300000001
 10
8.159736400136183
 20
24.01390300000001
 10
7.499336400136182
 20
24.01390300000001
 10
7.499336400136182
 20
23.78530300000001
 10
8.159736400136183
 20
23.78530300000001
  0
LWPOLYLINE
  5
1E4
330
1F
100
AcDbEntity
  8
0
  6
Continuous
 62
     1
420
 16711680
370
    25
100
AcDbPolyline
 90
        5
 70
     1
 43
0.0
 10
8.159736400136183
 20
23.38530400000001
 10
8.159736400136183
 20
23.61390400000001
 10
7.499336400136182
 20
23.61390400000001
 10
7.499336400136182
 20
23.38530400000001
 10
8.159736400136183
 20
23.38530400000001
  0
LWPOLYLINE
  5
1E5
330
1F
100
AcDbEntity
  8
0
  6
Continuous
 62
     1
420
 16711680
370
    25
100
AcDbPolyline
 90
        5
 70
     1
 43
0.0
 10
8.159736400136183
 20
22.985305
 10
8.159736400136183
 20
23.21390500000001
 10
7.499336400136182
 20
23.21390500000001
 10
7.499336400136182
 20
22.985305
 10
8.159736400136183
 20
22.985305
  0
LWPOLYLINE
  5
1E6
330
1F
100
AcDbEntity
  8
0
  6
Continuous
 62
     1
420
 16711680
370
    25
100
AcDbPolyline
 90
        5
 70
     1
 43
0.0
 10
8.159736400136183
 20
22.585306
 10
8.159736400136183
 20
22.813906
 10
7.499336400136182
 20
22.813906
 10
7.499336400136182
 20
22.585306
 10
8.159736400136183
 20
22.585306
  0
LWPOLYLINE
  5
1E7
330
1F
100
AcDbEntity
  8
0
  6
Continuous
 62
     1
420
 16711680
370
    25
100
AcDbPolyline
 90
        5
 70
     1
 43
0.0
 10
8.159736400136183
 20
22.185306
 10
8.159736400136183
 20
22.413906
 10
7.499336400136182
 20
22.413906
 10
7.499336400136182
 20
22.185306
 10
8.159736400136183
 20
22.185306
  0
LWPOLYLINE
  5
1E8
330
1F
100
AcDbEntity
  8
0
  6
Continuous
 62
     1
420
 16711680
370
    25
100
AcDbPolyline
 90
        5
 70
     1
 43
0.0
 10
8.159736400136183
 20
21.785307
 10
8.159736400136183
 20
22.013907
 10
7.499336400136182
 20
22.013907
 10
7.499336400136182
 20
21.785307
 10
8.159736400136183
 20
21.785307
  0
LWPOLYLINE
  5
1E9
330
1F
100
AcDbEntity
  8
0
  6
Continuous
 62
     1
420
 16711680
370
    25
100
AcDbPolyline
 90
        5
 70
     1
 43
0.0
 10
8.159736400136183
 20
21.38530800000001
 10
8.159736400136183
 20
21.61390800000001
 10
7.499336400136182
 20
21.61390800000001
 10
7.499336400136182
 20
21.38530800000001
 10
8.159736400136183
 20
21.38530800000001
  0
LWPOLYLINE
  5
1EA
330
1F
100
AcDbEntity
  8
0
  6
Continuous
 62
     1
420
 16711680
370
    25
100
AcDbPolyline
 90
        5
 70
     1
 43
0.0
 10
8.159736400136183
 20
20.98530900000001
 10
8.159736400136183
 20
21.21390900000001
 10
7.499336400136182
 20
21.21390900000001
 10
7.499336400136182
 20
20.98530900000001
 10
8.159736400136183
 20
20.98530900000001
  0
LWPOLYLINE
  5
1EB
330
1F
100
AcDbEntity
  8
0
  6
Continuous
 62
     1
420
 16711680
370
    25
100
AcDbPolyline
 90
        5
 70
     1
 43
0.0
 10
8.159736400136183
 20
20.58531000000001
 10
8.159736400136183
 20
20.81391000000001
 10
7.499336400136182
 20
20.81391000000001
 10
7.499336400136182
 20
20.58531000000001
 10
8.159736400136183
 20
20.58531000000001
  0
LWPOLYLINE
  5
1EC
330
1F
100
AcDbEntity
  8
0
  6
Continuous
 62
     1
420
 16711680
370
    25
100
AcDbPolyline
 90
        5
 70
     1
 43
0.0
 10
8.159736400136183
 20
20.18531
 10
8.159736400136183
 20
20.41391000000001
 10
7.499336400136182
 20
20.41391000000001
 10
7.499336400136182
 20
20.18531
 10
8.159736400136183
 20
20.18531
  0
LWPOLYLINE
  5
1ED
330
1F
100
AcDbEntity
  8
0
  6
Continuous
 62
     1
420
 16711680
370
    25
100
AcDbPolyline
 90
        5
 70
     1
 43
0.0
 10
8.159736400136183
 20
19.78531100000001
 10
8.159736400136183
 20
20.013911
 10
7.499336400136182
 20
20.013911
 10
7.499336400136182
 20
19.78531100000001
 10
8.159736400136183
 20
19.78531100000001
  0
LWPOLYLINE
  5
1EE
330
1F
100
AcDbEntity
  8
0
  6
Continuous
 62
     1
420
 16711680
370
    25
100
AcDbPolyline
 90
        5
 70
     1
 43
0.0
 10
8.159736400136183
 20
19.385312
 10
8.159736400136183
 20
19.613912
 10
7.499336400136182
 20
19.613912
 10
7.499336400136182
 20
19.385312
 10
8.159736400136183
 20
19.385312
  0
LWPOLYLINE
  5
1EF
330
1F
100
AcDbEntity
  8
0
  6
Continuous
 62
     1
420
 16711680
370
    25
100
AcDbPolyline
 90
        5
 70
     1
 43
0.0
 10
8.159736400136183
 20
18.985313
 10
8.159736400136183
 20
19.21391300000001
 10
7.499336400136182
 20
19.21391300000001
 10
7.499336400136182
 20
18.985313
 10
8.159736400136183
 20
18.985313
  0
LWPOLYLINE
  5
1F0
330
1F
100
AcDbEntity
  8
0
  6
Continuous
 62
     1
420
 16711680
370
    25
100
AcDbPolyline
 90
        5
 70
     1
 43
0.0
 10
8.159736400136183
 20
18.585314
 10
8.159736400136183
 20
18.813914
 10
7.499336400136182
 20
18.813914
 10
7.499336400136182
 20
18.585314
 10
8.159736400136183
 20
18.585314
  0
LWPOLYLINE
  5
1F1
330
1F
100
AcDbEntity
  8
0
  6
Continuous
 62
     1
420
 16711680
370
    25
100
AcDbPolyline
 90
        5
 70
     1
 43
0.0
 10
8.159736400136183
 20
18.18531400000001
 10
8.159736400136183
 20
18.41391400000001
 10
7.499336400136182
 20
18.41391400000001
 10
7.499336400136182
 20
18.18531400000001
 10
8.159736400136183
 20
18.18531400000001
  0
LWPOLYLINE
  5
1F2
330
1F
100
AcDbEntity
  8
0
  6
Continuous
 62
     1
420
 16711680
370
    25
100
AcDbPolyline
 90
        5
 70
     1
 43
0.0
 10
8.159736400136183
 20
17.785315
 10
8.159736400136183
 20
18.013915
 10
7.499336400136182
 20
18.013915
 10
7.499336400136182
 20
17.785315
 10
8.159736400136183
 20
17.785315
  0
LWPOLYLINE
  5
1F3
330
1F
100
AcDbEntity
  8
0
  6
Continuous
 62
     1
420
 16711680
370
    25
100
AcDbPolyline
 90
        5
 70
     1
 43
0.0
 10
8.159736400136183
 20
17.38531600000001
 10
8.159736400136183
 20
17.613916
 10
7.499336400136182
 20
17.613916
 10
7.499336400136182
 20
17.38531600000001
 10
8.159736400136183
 20
17.38531600000001
  0
LWPOLYLINE
  5
1F4
330
1F
100
AcDbEntity
  8
0
  6
Continuous
 62
     1
420
 16711680
370
    25
100
AcDbPolyline
 90
        5
 70
     1
 43
0.0
 10
8.159736400136183
 20
16.98531700000001
 10
8.159736400136183
 20
17.21391700000001
 10
7.499336400136182
 20
17.21391700000001
 10
7.499336400136182
 20
16.98531700000001
 10
8.159736400136183
 20
16.98531700000001
  0
LWPOLYLINE
  5
1F5
330
1F
100
AcDbEntity
  8
0
  6
Continuous
 62
     1
420
 16711680
370
    25
100
AcDbPolyline
 90
        5
 70
     1
 43
0.0
 10
8.159736400136183
 20
16.585292
 10
8.159736400136183
 20
16.813892
 10
7.499336400136182
 20
16.813892
 10
7.499336400136182
 20
16.585292
 10
8.159736400136183
 20
16.585292
  0
LWPOLYLINE
  5
1F6
330
1F
100
AcDbEntity
  8
0
  6
Continuous
 62
     1
420
 16711680
370
    25
100
AcDbPolyline
 90
        5
 70
     1
 43
0.0
 10
8.159736400136183
 20
16.185293
 10
8.159736400136183
 20
16.41389300000001
 10
7.499336400136182
 20
16.41389300000001
 10
7.499336400136182
 20
16.185293
 10
8.159736400136183
 20
16.185293
  0
LWPOLYLINE
  5
1F7
330
1F
100
AcDbEntity
  8
0
  6
Continuous
 62
     1
420
 16711680
370
    25
100
AcDbPolyline
 90
        5
 70
     1
 43
0.0
 10
8.159736400136183
 20
15.785294
 10
8.159736400136183
 20
16.013894
 10
7.499336400136182
 20
16.013894
 10
7.499336400136182
 20
15.785294
 10
8.159736400136183
 20
15.785294
  0
LWPOLYLINE
  5
1F8
330
1F
100
AcDbEntity
  8
0
  6
Continuous
 62
     1
420
 16711680
370
    25
100
AcDbPolyline
 90
        5
 70
     1
 43
0.0
 10
8.159736400136183
 20
15.38529500000001
 10
8.159736400136183
 20
15.613895
 10
7.499336400136182
 20
15.613895
 10
7.499336400136182
 20
15.38529500000001
 10
8.159736400136183
 20
15.38529500000001
  0
LWPOLYLINE
  5
1F9
330
1F
100
AcDbEntity
  8
0
  6
Continuous
 62
     1
420
 16711680
370
    25
100
AcDbPolyline
 90
        5
 70
     1
 43
0.0
 10
8.159736400136183
 20
14.98529500000001
 10
8.159736400136183
 20
15.213895
 10
7.499336400136182
 20
15.213895
 10
7.499336400136182
 20
14.98529500000001
 10
8.159736400136183
 20
14.98529500000001
  0
LWPOLYLINE
  5
1FA
330
1F
100
AcDbEntity
  8
0
  6
Continuous
 62
     1
420
 16711680
370
    25
100
AcDbPolyline
 90
        5
 70
     1
 43
0.0
 10
8.159736400136183
 20
14.58529600000001
 10
8.159736400136183
 20
14.81389600000001
 10
7.499336400136182
 20
14.81389600000001
 10
7.499336400136182
 20
14.58529600000001
 10
8.159736400136183
 20
14.58529600000001
  0
LWPOLYLINE
  5
1FB
330
1F
100
AcDbEntity
  8
0
  6
Continuous
 62
     1
420
 16711680
370
    25
100
AcDbPolyline
 90
        5
 70
     1
 43
0.0
 10
8.159736400136183
 20
14.18529700000001
 10
8.159736400136183
 20
14.41389700000001
 10
7.499336400136182
 20
14.41389700000001
 10
7.499336400136182
 20
14.18529700000001
 10
8.159736400136183
 20
14.18529700000001
  0
LWPOLYLINE
  5
1FC
330
1F
100
AcDbEntity
  8
0
  6
Continuous
 62
     1
420
 16711680
370
    25
100
AcDbPolyline
 90
        5
 70
     1
 43
0.0
 10
8.159736400136183
 20
13.78529800000001
 10
8.159736400136183
 20
14.013898
 10
7.499336400136182
 20
14.013898
 10
7.499336400136182
 20
13.78529800000001
 10
8.159736400136183
 20
13.78529800000001
  0
LWPOLYLINE
  5
1FD
330
1F
100
AcDbEntity
  8
0
  6
Continuous
 62
     1
420
 16711680
370
    25
100
AcDbPolyline
 90
        5
 70
     1
 43
0.0
 10
8.159736400136183
 20
13.385299
 10
8.159736400136183
 20
13.61389900000001
 10
7.499336400136182
 20
13.61389900000001
 10
7.499336400136182
 20
13.385299
 10
8.159736400136183
 20
13.385299
  0
SPLINE
  5
1FE
330
1F
100
AcDbEntity
  8
0
  6
Continuous
 62
     1
420
 16711680
370
    25
100
AcDbSpline
210
0.0
220
0.0
230
1.0
 70
    11
 71
     3
 72
    17
 73
    13
 74
     0
 42
0.000000001
 43
0.0
 40
0.0
 40
0.0
 40
0.0
 40
0.0
 40
1.0
 40
1.0
 40
1.0
 40
2.0
 40
2.0
 40
2.0
 40
3.0
 40
3.0
 40
3.0
 40
4.0
 40
4.0
 40
4.0
 40
4.0
 10
55.61953540013618
 20
61.625004
 30
0.0
 10
55.89549236046815
 20
61.625004
 30
0.0
 10
56.11953440013619
 20
61.84904603966803
 30
0.0
 10
56.11953440013619
 20
62.125003
 30
0.0
 10
56.11953440013619
 20
62.40095996033197
 30
0.0
 10
55.89549236046815
 20
62.62500199999999
 30
0.0
 10
55.61953540013618
 20
62.62500199999999
 30
0.0
 10
55.34357843980421
 20
62.62500199999999
 30
0.0
 10
55.11953640013619
 20
62.40095996033197
 30
0.0
 10
55.11953640013619
 20
62.125003
 30
0.0
 10
55.11953640013619
 20
61.84904603966803
 30
0.0
 10
55.34357843980421
 20
61.625004
 30
0.0
 10
55.61953540013618
 20
61.625004
 30
0.0
  0
SPLINE
  5
1FF
330
1F
100
AcDbEntity
  8
0
  6
Continuous
 62
     1
420
 16711680
370
    25
100
AcDbSpline
210
0.0
220
0.0
230
1.0
 70
    11
 71
     3
 72
    17
 73
    13
 74
     0
 42
0.000000001
 43
0.0
 40
0.0
 40
0.0
 40
0.0
 40
0.0
 40
1.0
 40
1.0
 40
1.0
 40
2.0
 40
2.0
 40
2.0
 40
3.0
 40
3.0
 40
3.0
 40
4.0
 40
4.0
 40
4.0
 40
4.0
 10
6.619531400136182
 20
61.625004
 30
0.0
 10
6.895488360468158
 20
61.625004
 30
0.0
 10
7.119530400136182
 20
61.84904603966803
 30
0.0
 10
7.119530400136182
 20
62.125003
 30
0.0
 10
7.119530400136182
 20
62.40095996033197
 30
0.0
 10
6.895488360468158
 20
62.62500199999999
 30
0.0
 10
6.619531400136182
 20
62.62500199999999
 30
0.0
 10
6.343574439804206
 20
62.62500199999999
 30
0.0
 10
6.119532400136181
 20
62.40095996033197
 30
0.0
 10
6.119532400136181
 20
62.125003
 30
0.0
 10
6.119532400136181
 20
61.84904603966803
 30
0.0
 10
6.343574439804206
 20
61.625004
 30
0.0
 10
6.619531400136182
 20
61.625004
 30
0.0
  0
SPLINE
  5
200
330
1F
100
AcDbEntity
  8
0
  6
Continuous
 62
     1
420
 16711680
370
    25
100
AcDbSpline
210
0.0
220
0.0
230
1.0
 70
    11
 71
     3
 72
    17
 73
    13
 74
     0
 42
0.000000001
 43
0.0
 40
0.0
 40
0.0
 40
0.0
 40
0.0
 40
1.0
 40
1.0
 40
1.0
 40
2.0
 40
2.0
 40
2.0
 40
3.0
 40
3.0
 40
3.0
 40
4.0
 40
4.0
 40
4.0
 40
4.0
 10
55.61953540013618
 20
2.624995000000013
 30
0.0
 10
55.89549236046815
 20
2.624995000000013
 30
0.0
 10
56.11953440013619
 20
2.849037039668033
 30
0.0
 10
56.11953440013619
 20
3.124994000000001
 30
0.0
 10
56.11953440013619
 20
3.400950960331983
 30
0.0
 10
55.89549236046815
 20
3.624993000000003
 30
0.0
 10
55.61953540013618
 20
3.624993000000003
 30
0.0
 10
55.34357843980421
 20
3.624993000000003
 30
0.0
 10
55.11953640013619
 20
3.400950960331983
 30
0.0
 10
55.11953640013619
 20
3.124994000000001
 30
0.0
 10
55.11953640013619
 20
2.849037039668033
 30
0.0
 10
55.34357843980421
 20
2.624995000000013
 30
0.0
 10
55.61953540013618
 20
2.624995000000013
 30
0.0
  0
SPLINE
  5
201
330
1F
100
AcDbEntity
  8
0
  6
Continuous
 62
     1
420
 16711680
370
    25
100
AcDbSpline
210
0.0
220
0.0
230
1.0
 70
    11
 71
     3
 72
    17
 73
    13
 74
     0
 42
0.000000001
 43
0.0
 40
0.0
 40
0.0
 40
0.0
 40
0.0
 40
1.0
 40
1.0
 40
1.0
 40
2.0
 40
2.0
 40
2.0
 40
3.0
 40
3.0
 40
3.0
 40
4.0
 40
4.0
 40
4.0
 40
4.0
 10
6.619531400136182
 20
2.624995000000013
 30
0.0
 10
6.895488360468158
 20
2.624995000000013
 30
0.0
 10
7.119530400136182
 20
2.849037039668033
 30
0.0
 10
7.119530400136182
 20
3.124994000000001
 30
0.0
 10
7.119530400136182
 20
3.400950960331983
 30
0.0
 10
6.895488360468158
 20
3.624993000000003
 30
0.0
 10
6.619531400136182
 20
3.624993000000003
 30
0.0
 10
6.343574439804206
 20
3.624993000000003
 30
0.0
 10
6.119532400136181
 20
3.400950960331983
 30
0.0
 10
6.119532400136181
 20
3.124994000000001
 30
0.0
 10
6.119532400136181
 20
2.849037039668033
 30
0.0
 10
6.343574439804206
 20
2.624995000000013
 30
0.0
 10
6.619531400136182
 20
2.624995000000013
 30
0.0
  0
HATCH
  5
202
330
1F
100
AcDbEntity
  8
0
 62
    14
420
 10813440
440
 33554687
100
AcDbHatch
 10
0.0
 20
0.0
 30
0.0
210
0.0
220
0.0
230
1.0
  2
SOLID
 70
     1
 71
     1
 91
        2
 92
        0
 93
        6
 72
     1
 10
5.554534400136182
 20
58.159606
 11
5.554534400136182
 21
58.209606
 72
     1
 10
5.554534400136182
 20
58.209606
 11
7.454543400136182
 21
58.209606
 72
     1
 10
7.454543400136182
 20
58.209606
 11
7.454543400136182
 21
36.58960800000001
 72
     1
 10
7.454543400136182
 20
36.58960800000001
 11
5.504534400136182
 21
36.58960800000001
 72
     1
 10
5.504534400136182
 20
36.58960800000001
 11
5.504534400136182
 21
58.159606
 72
     1
 10
5.504534400136182
 20
58.159606
 11
5.554534400136182
 21
58.159606
 97
        0
 92
        0
 93
        4
 72
     1
 10
5.604534400136182
 20
58.109606
 11
5.604534400136182
 21
36.68960800000001
 72
     1
 10
5.604534400136182
 20
36.68960800000001
 11
7.354543400136182
 21
36.68960800000001
 72
     1
 10
7.354543400136182
 20
36.68960800000001
 11
7.354543400136182
 21
58.109606
 72
     1
 10
7.354543400136182
 20
58.109606
 11
5.604534400136182
 21
58.109606
 97
        0
 75
     0
 76
     1
 98
        0
  0
SPLINE
  5
203
330
1F
100
AcDbEntity
  8
0
  6
Continuous
 62
    14
420
 10813440
370
    25
100
AcDbSpline
210
0.0
220
0.0
230
1.0
 70
    11
 71
     3
 72
    20
 73
    16
 74
     0
 42
0.000000001
 43
0.0
 40
0.0
 40
0.0
 40
0.0
 40
0.0
 40
1.0
 40
1.0
 40
1.0
 40
2.0
 40
2.0
 40
2.0
 40
3.0
 40
3.0
 40
3.0
 40
4.0
 40
4.0
 40
4.0
 40
5.0
 40
5.0
 40
5.0
 40
5.0
 10
8.386025400136182
 20
58.407611
 30
0.0
 10
8.386019325003934
 20
58.64193879193622
 30
0.0
 10
8.19605419207239
 20
58.83189407513225
 30
0.0
 10
7.961726400136182
 20
58.83188800000001
 30
0.0
 10
7.84919822609514
 20
58.83188508261862
 30
0.0
 10
7.741280072024306
 20
58.78718064164062
 30
0.0
 10
7.661712699985511
 20
58.70760914380149
 30
0.0
 10
7.582145327946713
 20
58.62803764596237
 30
0.0
 10
7.537446482754794
 20
58.52011717404104
 30
0.0
 10
7.537449400136182
 20
58.40758900000001
 30
0.0
 10
7.537455475268431
 20
58.1732612080638
 30
0.0
 10
7.727420608199974
 20
57.98330592486776
 30
0.0
 10
7.961748400136182
 20
57.98331200000001
 30
0.0
 10
8.19607619207239
 20
57.98331807513226
 30
0.0
 10
8.38603147526843
 20
58.17328320806379
 30
0.0
 10
8.386025400136182
 20
58.407611
 30
0.0
  0
HATCH
  5
204
330
1F
100
AcDbEntity
  8
0
 62
    14
420
 10813440
440
 33554687
100
AcDbHatch
 10
0.0
 20
0.0
 30
0.0
210
0.0
220
0.0
230
1.0
  2
SOLID
 70
     1
 71
     1
 91
        2
 92
        0
 93
        6
 72
     1
 10
54.84453040013617
 20
58.159606
 11
54.84453040013617
 21
58.209606
 72
     1
 10
54.84453040013617
 20
58.209606
 11
56.74453940013618
 21
58.209606
 72
     1
 10
56.74453940013618
 20
58.209606
 11
56.74453940013618
 21
36.58960800000001
 72
     1
 10
56.74453940013618
 20
36.58960800000001
 11
54.79453040013618
 21
36.58960800000001
 72
     1
 10
54.79453040013618
 20
36.58960800000001
 11
54.79453040013618
 21
58.159606
 72
     1
 10
54.79453040013618
 20
58.159606
 11
54.84453040013617
 21
58.159606
 97
        0
 92
        0
 93
        4
 72
     1
 10
54.89453040013618
 20
58.109606
 11
54.89453040013618
 21
36.68960800000001
 72
     1
 10
54.89453040013618
 20
36.68960800000001
 11
56.64453940013619
 21
36.68960800000001
 72
     1
 10
56.64453940013619
 20
36.68960800000001
 11
56.64453940013619
 21
58.109606
 72
     1
 10
56.64453940013619
 20
58.109606
 11
54.89453040013618
 21
58.109606
 97
        0
 75
     0
 76
     1
 98
        0
  0
SPLINE
  5
205
330
1F
100
AcDbEntity
  8
0
  6
Continuous
 62
    14
420
 10813440
370
    25
100
AcDbSpline
210
0.0
220
0.0
230
1.0
 70
    11
 71
     3
 72
    17
 73
    13
 74
     0
 42
0.000000001
 43
0.0
 40
0.0
 40
0.0
 40
0.0
 40
0.0
 40
1.0
 40
1.0
 40
1.0
 40
2.0
 40
2.0
 40
2.0
 40
3.0
 40
3.0
 40
3.0
 40
4.0
 40
4.0
 40
4.0
 40
4.0
 10
58.48884640013619
 20
57.89961100000001
 30
0.0
 10
58.48884032500393
 20
58.13395038991596
 30
0.0
 10
58.29886579005213
 20
58.32391507513226
 30
0.0
 10
58.06452640013618
 20
58.32390900000001
 30
0.0
 10
57.83018701022022
 20
58.32390292486775
 30
0.0
 10
57.64022232500393
 20
58.13392838991597
 30
0.0
 10
57.64022840013617
 20
57.89958900000001
 30
0.0
 10
57.64023447526843
 20
57.66524961008405
 30
0.0
 10
57.83020901022023
 20
57.47528492486776
 30
0.0
 10
58.06454840013618
 20
57.47529100000001
 30
0.0
 10
58.29888779005214
 20
57.47529707513225
 30
0.0
 10
58.48885247526844
 20
57.66527161008405
 30
0.0
 10
58.48884640013619
 20
57.89961100000001
 30
0.0
  0
HATCH
  5
206
330
1F
100
AcDbEntity
  8
0
 62
    14
420
 10813440
440
 33554687
100
AcDbHatch
 10
0.0
 20
0.0
 30
0.0
210
0.0
220
0.0
230
1.0
  2
SOLID
 70
     1
 71
     1
 91
        2
 92
        0
 93
        6
 72
     1
 10
54.84453040013617
 20
34.05960300000001
 11
54.84453040013617
 21
34.10960300000001
 72
     1
 10
54.84453040013617
 20
34.10960300000001
 11
56.74453940013618
 21
34.10960300000001
 72
     1
 10
56.74453940013618
 20
34.10960300000001
 11
56.74453940013618
 21
12.48960600000001
 72
     1
 10
56.74453940013618
 20
12.48960600000001
 11
54.79453040013618
 21
12.48960600000001
 72
     1
 10
54.79453040013618
 20
12.48960600000001
 11
54.79453040013618
 21
34.05960300000001
 72
     1
 10
54.79453040013618
 20
34.05960300000001
 11
54.84453040013617
 21
34.05960300000001
 97
        0
 92
        0
 93
        4
 72
     1
 10
54.89453040013618
 20
34.00960300000001
 11
54.89453040013618
 21
12.589606
 72
     1
 10
54.89453040013618
 20
12.589606
 11
56.64453940013619
 21
12.589606
 72
     1
 10
56.64453940013619
 20
12.589606
 11
56.64453940013619
 21
34.00960300000001
 72
     1
 10
56.64453940013619
 20
34.00960300000001
 11
54.89453040013618
 21
34.00960300000001
 97
        0
 75
     0
 76
     1
 98
        0
  0
SPLINE
  5
207
330
1F
100
AcDbEntity
  8
0
  6
Continuous
 62
    14
420
 10813440
370
    25
100
AcDbSpline
210
0.0
220
0.0
230
1.0
 70
    11
 71
     3
 72
    23
 73
    19
 74
     0
 42
0.000000001
 43
0.0
 40
0.0
 40
0.0
 40
0.0
 40
0.0
 40
1.0
 40
1.0
 40
1.0
 40
2.0
 40
2.0
 40
2.0
 40
3.0
 40
3.0
 40
3.0
 40
4.0
 40
4.0
 40
4.0
 40
5.0
 40
5.0
 40
5.0
 40
6.0
 40
6.0
 40
6.0
 40
6.0
 10
58.48884640013619
 20
33.799609
 30
0.0
 10
58.48884142957343
 20
34.03394838991596
 30
0.0
 10
58.29886779005214
 20
34.22391397056276
 30
0.0
 10
58.06452840013618
 20
34.22390900000001
 30
0.0
 10
57.95199465654886
 20
34.2239066130516
 30
0.0
 10
57.84407095033217
 20
34.17920046828777
 30
0.0
 10
57.76449926495668
 20
34.09962540725745
 30
0.0
 10
57.68492757958117
 20
34.02005034622714
 30
0.0
 10
57.64022601318776
 20
33.91212474358733
 30
0.0
 10
57.64022840013617
 20
33.79959100000001
 30
0.0
 10
57.64023078708459
 20
33.68705725641267
 30
0.0
 10
57.68493693184841
 20
33.57913355019599
 30
0.0
 10
57.76451199287874
 20
33.49956186482049
 30
0.0
 10
57.84408705390904
 20
33.41999017944499
 30
0.0
 10
57.95201265654885
 20
33.37528861305159
 30
0.0
 10
58.06454640013619
 20
33.375291
 30
0.0
 10
58.29888579005214
 20
33.37529597056275
 30
0.0
 10
58.48885137069892
 20
33.56526961008404
 30
0.0
 10
58.48884640013619
 20
33.799609
 30
0.0
  0
SPLINE
  5
208
330
1F
100
AcDbEntity
  8
0
  6
Continuous
 62
    14
420
 10813440
370
    25
100
AcDbSpline
210
0.0
220
0.0
230
1.0
 70
    11
 71
     3
 72
    23
 73
    19
 74
     0
 42
0.000000001
 43
0.0
 40
0.0
 40
0.0
 40
0.0
 40
0.0
 40
1.0
 40
1.0
 40
1.0
 40
2.0
 40
2.0
 40
2.0
 40
3.0
 40
3.0
 40
3.0
 40
4.0
 40
4.0
 40
4.0
 40
5.0
 40
5.0
 40
5.0
 40
6.0
 40
6.0
 40
6.0
 40
6.0
 10
58.48884640013619
 20
33.799609
 30
0.0
 10
58.48884142957343
 20
34.03394838991596
 30
0.0
 10
58.29886779005214
 20
34.22391397056276
 30
0.0
 10
58.06452840013618
 20
34.22390900000001
 30
0.0
 10
57.95199465654886
 20
34.2239066130516
 30
0.0
 10
57.84407095033217
 20
34.17920046828777
 30
0.0
 10
57.76449926495668
 20
34.09962540725745
 30
0.0
 10
57.68492757958117
 20
34.02005034622714
 30
0.0
 10
57.64022601318776
 20
33.91212474358733
 30
0.0
 10
57.64022840013617
 20
33.79959100000001
 30
0.0
 10
57.64023078708459
 20
33.68705725641267
 30
0.0
 10
57.68493693184841
 20
33.57913355019599
 30
0.0
 10
57.76451199287874
 20
33.49956186482049
 30
0.0
 10
57.84408705390904
 20
33.41999017944499
 30
0.0
 10
57.95201265654885
 20
33.37528861305159
 30
0.0
 10
58.06454640013619
 20
33.375291
 30
0.0
 10
58.29888579005214
 20
33.37529597056275
 30
0.0
 10
58.48885137069892
 20
33.56526961008404
 30
0.0
 10
58.48884640013619
 20
33.799609
 30
0.0
  0
HATCH
  5
209
330
1F
100
AcDbEntity
  8
0
 62
    14
420
 10813440
440
 33554687
100
AcDbHatch
 10
0.0
 20
0.0
 30
0.0
210
0.0
220
0.0
230
1.0
  2
SOLID
 70
     1
 71
     1
 91
        2
 92
        0
 93
        6
 72
     1
 10
5.554534400136182
 20
34.05960300000001
 11
5.554534400136182
 21
34.10960300000001
 72
     1
 10
5.554534400136182
 20
34.10960300000001
 11
7.454543400136182
 21
34.10960300000001
 72
     1
 10
7.454543400136182
 20
34.10960300000001
 11
7.454543400136182
 21
12.48960600000001
 72
     1
 10
7.454543400136182
 20
12.48960600000001
 11
5.504534400136182
 21
12.48960600000001
 72
     1
 10
5.504534400136182
 20
12.48960600000001
 11
5.504534400136182
 21
34.05960300000001
 72
     1
 10
5.504534400136182
 20
34.05960300000001
 11
5.554534400136182
 21
34.05960300000001
 97
        0
 92
        0
 93
        4
 72
     1
 10
5.604534400136182
 20
34.00960300000001
 11
5.604534400136182
 21
12.589606
 72
     1
 10
5.604534400136182
 20
12.589606
 11
7.354543400136182
 21
12.589606
 72
     1
 10
7.354543400136182
 20
12.589606
 11
7.354543400136182
 21
34.00960300000001
 72
     1
 10
7.354543400136182
 20
34.00960300000001
 11
5.604534400136182
 21
34.00960300000001
 97
        0
 75
     0
 76
     1
 98
        0
  0
SPLINE
  5
20A
330
1F
100
AcDbEntity
  8
0
  6
Continuous
 62
    14
420
 10813440
370
    25
100
AcDbSpline
210
0.0
220
0.0
230
1.0
 70
    11
 71
     3
 72
    71
 73
    67
 74
     0
 42
0.000000001
 43
0.0
 40
0.0
 40
0.0
 40
0.0
 40
0.0
 40
1.0
 40
1.0
 40
1.0
 40
2.0
 40
2.0
 40
2.0
 40
3.0
 40
3.0
 40
3.0
 40
4.0
 40
4.0
 40
4.0
 40
5.0
 40
5.0
 40
5.0
 40
6.0
 40
6.0
 40
6.0
 40
7.0
 40
7.0
 40
7.0
 40
8.0
 40
8.0
 40
8.0
 40
9.0
 40
9.0
 40
9.0
 40
10.0
 40
10.0
 40
10.0
 40
11.0
 40
11.0
 40
11.0
 40
12.0
 40
12.0
 40
12.0
 40
13.0
 40
13.0
 40
13.0
 40
14.0
 40
14.0
 40
14.0
 40
15.0
 40
15.0
 40
15.0
 40
16.0
 40
16.0
 40
16.0
 40
17.0
 40
17.0
 40
17.0
 40
18.0
 40
18.0
 40
18.0
 40
19.0
 40
19.0
 40
19.0
 40
20.0
 40
20.0
 40
20.0
 40
21.0
 40
21.0
 40
21.0
 40
22.0
 40
22.0
 40
22.0
 40
22.0
 10
53.19701079713482
 20
20.53287776261939
 30
0.0
 10
53.19701079713482
 20
20.53287776261939
 30
0.0
 10
53.17069251609798
 20
20.6370766712142
 30
0.0
 10
53.17069251609798
 20
20.6370766712142
 30
0.0
 10
53.0851133437469
 20
20.61523428831288
 30
0.0
 10
53.01985474893108
 20
20.57593590268304
 30
0.0
 10
52.9749167316505
 20
20.5191815143247
 30
0.0
 10
52.92997871436992
 20
20.46242712596636
 30
0.0
 10
52.90750970572963
 20
20.39305070486586
 30
0.0
 10
52.90750970572963
 20
20.31105225102321
 30
0.0
 10
52.90750970572963
 20
20.22618922237381
 30
0.0
 10
52.92478667253273
 20
20.15717087312416
 30
0.0
 10
52.9593406061389
 20
20.10399720327422
 30
0.0
 10
52.99389453974509
 20
20.05082353342429
 30
0.0
 10
53.04393508090016
 20
20.01036141427923
 30
0.0
 10
53.10946222960412
 20
19.98261084583903
 30
0.0
 10
53.17498937830807
 20
19.95486027739883
 30
0.0
 10
53.24535049699839
 20
19.94098499317872
 30
0.0
 10
53.32054558567506
 20
19.94098499317872
 30
0.0
 10
53.40254403951771
 20
19.94098499317872
 30
0.0
 10
53.47406889172326
 20
19.95665063665303
 30
0.0
 10
53.5351201422917
 20
19.98798192360165
 30
0.0
 10
53.59617139286014
 20
20.01931321055026
 30
0.0
 10
53.64254169754409
 20
20.06389315598
 30
0.0
 10
53.67423105634354
 20
20.12172175989087
 30
0.0
 10
53.70592041514299
 20
20.17955036380175
 30
0.0
 10
53.72176509454272
 20
20.24319763528877
 30
0.0
 10
53.72176509454272
 20
20.31266357435199
 30
0.0
 10
53.72176509454272
 20
20.39143938153707
 30
0.0
 10
53.70171307089561
 20
20.45768267394271
 30
0.0
 10
53.66160902360139
 20
20.51139345156891
 30
0.0
 10
53.62150497630716
 20
20.5651042291951
 30
0.0
 10
53.56510865979966
 20
20.60252273760802
 30
0.0
 10
53.49242007407887
 20
20.62364897680765
 30
0.0
 10
53.49242007407887
 20
20.62364897680765
 30
0.0
 10
53.46825022414709
 20
20.52106139154162
 30
0.0
 10
53.46825022414709
 20
20.52106139154162
 30
0.0
 10
53.52554172028169
 20
20.50279972714871
 30
0.0
 10
53.5672570909047
 20
20.47630241018646
 30
0.0
 10
53.59339633601613
 20
20.44156944065485
 30
0.0
 10
53.61953558112754
 20
20.40683647112325
 30
0.0
 10
53.63260520368324
 20
20.36315170532061
 30
0.0
 10
53.63260520368324
 20
20.31051514324695
 30
0.0
 10
53.63260520368324
 20
20.25000100045477
 30
0.0
 10
53.61810329372417
 20
20.19942335152344
 30
0.0
 10
53.58909947380602
 20
20.15878219645295
 30
0.0
 10
53.56009565388788
 20
20.11814104138246
 30
0.0
 10
53.52115534010889
 20
20.08958481127786
 30
0.0
 10
53.47227853246905
 20
20.07311350613917
 30
0.0
 10
53.42340172482922
 20
20.05664220100046
 30
0.0
 10
53.37300311182331
 20
20.04840654843111
 30
0.0
 10
53.32108269345132
 20
20.04840654843111
 30
0.0
 10
53.254123257344
 20
20.04840654843111
 30
0.0
 10
53.19566802769415
 20
20.05816400636654
 30
0.0
 10
53.1457170045018
 20
20.0776789222374
 30
0.0
 10
53.09576598130943
 20
20.09719383810824
 30
0.0
 10
53.05843699085924
 20
20.12754042746705
 30
0.0
 10
53.03373003315118
 20
20.16871869031379
 30
0.0
 10
53.00902307544313
 20
20.20989695316054
 30
0.0
 10
52.99666959658911
 20
20.25447689859028
 30
0.0
 10
52.99666959658911
 20
20.30245852660301
 30
0.0
 10
52.99666959658911
 20
20.36082423829014
 30
0.0
 10
53.01349897357866
 20
20.41023815370624
 30
0.0
 10
53.04715772755773
 20
20.45070027285131
 30
0.0
 10
53.08081648153681
 20
20.49116239199637
 30
0.0
 10
53.13076750472918
 20
20.51855488858573
 30
0.0
 10
53.19701079713482
 20
20.53287776261939
 30
0.0
  0
SPLINE
  5
20B
330
1F
100
AcDbEntity
  8
0
  6
Continuous
 62
    14
420
 10813440
370
    25
100
AcDbSpline
210
0.0
220
0.0
230
1.0
 70
    11
 71
     3
 72
    38
 73
    34
 74
     0
 42
0.000000001
 43
0.0
 40
0.0
 40
0.0
 40
0.0
 40
0.0
 40
1.0
 40
1.0
 40
1.0
 40
2.0
 40
2.0
 40
2.0
 40
3.0
 40
3.0
 40
3.0
 40
4.0
 40
4.0
 40
4.0
 40
5.0
 40
5.0
 40
5.0
 40
6.0
 40
6.0
 40
6.0
 40
7.0
 40
7.0
 40
7.0
 40
8.0
 40
8.0
 40
8.0
 40
9.0
 40
9.0
 40
9.0
 40
10.0
 40
10.0
 40
10.0
 40
11.0
 40
11.0
 40
11.0
 40
11.0
 10
53.3044323523872
 20
20.73375607094135
 30
0.0
 10
53.43512857794427
 20
20.73375607094135
 30
0.0
 10
53.53744760932217
 20
20.7688471123238
 30
0.0
 10
53.6113894465209
 20
20.83902919508869
 30
0.0
 10
53.68533128371963
 20
20.90921127785359
 30
0.0
 10
53.72230220231898
 20
20.99980345611642
 30
0.0
 10
53.72230220231898
 20
21.11080572987723
 30
0.0
 10
53.72230220231898
 20
21.18349431559801
 30
0.0
 10
53.70493571755318
 20
21.24902146430196
 30
0.0
 10
53.67020274802157
 20
21.3073871759891
 30
0.0
 10
53.63546977848997
 20
21.36575288767622
 30
0.0
 10
53.58704056066369
 20
21.41024331514326
 30
0.0
 10
53.52491509454272
 20
21.44085845839019
 30
0.0
 10
53.46278962842176
 20
21.47147360163712
 30
0.0
 10
53.39233899176874
 20
21.48678117326059
 30
0.0
 10
53.31356318458365
 20
21.48678117326059
 30
0.0
 10
53.23371316184605
 20
21.48678117326059
 30
0.0
 10
53.16227782760321
 20
21.47066793997273
 30
0.0
 10
53.09925718185514
 20
21.43844147339701
 30
0.0
 10
53.03623653610707
 20
21.4062150068213
 30
0.0
 10
52.98852346198247
 20
21.36056084583903
 30
0.0
 10
52.95611795948133
 20
21.30147899045021
 30
0.0
 10
52.92371245698019
 20
21.2423971350614
 30
0.0
 10
52.90750970572963
 20
21.17866034561165
 30
0.0
 10
52.90750970572963
 20
21.11026862210097
 30
0.0
 10
52.90750970572963
 20
21.03614774897682
 30
0.0
 10
52.92541329827169
 20
20.96990445657119
 30
0.0
 10
52.96122048335582
 20
20.91153874488405
 30
0.0
 10
52.99702766843995
 20
20.85317303319692
 30
0.0
 10
53.04590447607978
 20
20.80895115961802
 30
0.0
 10
53.10785090627533
 20
20.77887312414735
 30
0.0
 10
53.16979733647087
 20
20.74879508867669
 30
0.0
 10
53.23532448517483
 20
20.73375607094135
 30
0.0
 10
53.3044323523872
 20
20.73375607094135
 30
0.0
  0
SPLINE
  5
20C
330
1F
100
AcDbEntity
  8
0
  6
Continuous
 62
    14
420
 10813440
370
    25
100
AcDbSpline
210
0.0
220
0.0
230
1.0
 70
    11
 71
     3
 72
    32
 73
    28
 74
     0
 42
0.000000001
 43
0.0
 40
0.0
 40
0.0
 40
0.0
 40
0.0
 40
1.0
 40
1.0
 40
1.0
 40
2.0
 40
2.0
 40
2.0
 40
3.0
 40
3.0
 40
3.0
 40
4.0
 40
4.0
 40
4.0
 40
5.0
 40
5.0
 40
5.0
 40
6.0
 40
6.0
 40
6.0
 40
7.0
 40
7.0
 40
7.0
 40
8.0
 40
8.0
 40
8.0
 40
9.0
 40
9.0
 40
9.0
 40
9.0
 10
53.30282102905841
 20
20.84117762619373
 30
0.0
 10
53.20793198858547
 20
20.84117762619373
 30
0.0
 10
53.13318448972235
 20
20.86669024556618
 30
0.0
 10
53.07857853246905
 20
20.91771548431106
 30
0.0
 10
53.02397257521576
 20
20.96874072305594
 30
0.0
 10
52.99666959658911
 20
21.03274606639383
 30
0.0
 10
52.99666959658911
 20
21.10973151432471
 30
0.0
 10
52.99666959658911
 20
21.18814924965895
 30
0.0
 10
53.02424112910389
 20
21.2526917007731
 30
0.0
 10
53.07938419413345
 20
21.30335886766714
 30
0.0
 10
53.13452725916301
 20
21.35402603456117
 30
0.0
 10
53.21276595857183
 20
21.37935961800819
 30
0.0
 10
53.31410029235991
 20
21.37935961800819
 30
0.0
 10
53.3781951536605
 20
21.37935961800819
 30
0.0
 10
53.43414388035445
 20
21.36852794452025
 30
0.0
 10
53.48194647244177
 20
21.34686459754435
 30
0.0
 10
53.52974906452908
 20
21.32520125056845
 30
0.0
 10
53.56680950109115
 20
21.293511891769
 30
0.0
 10
53.59312778212799
 20
21.25179652114599
 30
0.0
 10
53.61944606316483
 20
21.21008115052297
 30
0.0
 10
53.63260520368324
 20
21.16326325602548
 30
0.0
 10
53.63260520368324
 20
21.11134283765349
 30
0.0
 10
53.63260520368324
 20
21.03758003638018
 30
0.0
 10
53.60727162023623
 20
20.97411180081857
 30
0.0
 10
53.55660445334217
 20
20.92093813096864
 30
0.0
 10
53.50593728644814
 20
20.8677644611187
 30
0.0
 10
53.42134281168688
 20
20.84117762619373
 30
0.0
 10
53.30282102905841
 20
20.84117762619373
 30
0.0
  0
LWPOLYLINE
  5
20D
330
1F
100
AcDbEntity
  8
0
  6
Continuous
 62
    14
420
 10813440
370
    25
100
AcDbPolyline
 90
       11
 70
     1
 43
0.0
 10
52.92093740013618
 20
21.61998390177354
 10
53.70833740013617
 20
21.61998390177354
 10
53.70833740013617
 20
21.72686834924967
 10
53.09012634965869
 20
22.14044133697137
 10
53.70833740013617
 20
22.14044133697137
 10
53.70833740013617
 20
22.24034338335609
 10
52.92093740013618
 20
22.24034338335609
 10
52.92093740013618
 20
22.13345893587996
 10
53.53968555838993
 20
21.71988594815826
 10
52.92093740013618
 20
21.71988594815826
 10
52.92093740013618
 20
21.61998390177354
  0
LWPOLYLINE
  5
20E
330
1F
100
AcDbEntity
  8
0
  6
Continuous
 62
    14
420
 10813440
370
    25
100
AcDbPolyline
 90
       12
 70
     1
 43
0.0
 10
52.92093740013618
 20
22.68614283765349
 10
53.10946222960412
 20
22.68614283765349
 10
53.10946222960412
 20
22.34454229195089
 10
53.19808501268734
 20
22.34454229195089
 10
53.70833740013617
 20
22.70386739427013
 10
53.70833740013617
 20
22.78282223738063
 10
53.19808501268734
 20
22.78282223738063
 10
53.19808501268734
 20
22.88916957708049
 10
53.10946222960412
 20
22.88916957708049
 10
53.10946222960412
 20
22.78282223738063
 10
52.92093740013618
 20
22.78282223738063
 10
52.92093740013618
 20
22.68614283765349
  0
LWPOLYLINE
  5
20F
330
1F
100
AcDbEntity
  8
0
  6
Continuous
 62
    14
420
 10813440
370
    25
100
AcDbPolyline
 90
        4
 70
     1
 43
0.0
 10
53.19808501268734
 20
22.68614283765349
 10
53.55311325279647
 20
22.68614283765349
 10
53.19808501268734
 20
22.43961036834926
 10
53.19808501268734
 20
22.68614283765349
  0
SPLINE
  5
210
330
1F
100
AcDbEntity
  8
0
  6
Continuous
 62
    14
420
 10813440
370
    25
100
AcDbSpline
210
0.0
220
0.0
230
1.0
 70
    11
 71
     3
 72
    71
 73
    67
 74
     0
 42
0.000000001
 43
0.0
 40
0.0
 40
0.0
 40
0.0
 40
0.0
 40
1.0
 40
1.0
 40
1.0
 40
2.0
 40
2.0
 40
2.0
 40
3.0
 40
3.0
 40
3.0
 40
4.0
 40
4.0
 40
4.0
 40
5.0
 40
5.0
 40
5.0
 40
6.0
 40
6.0
 40
6.0
 40
7.0
 40
7.0
 40
7.0
 40
8.0
 40
8.0
 40
8.0
 40
9.0
 40
9.0
 40
9.0
 40
10.0
 40
10.0
 40
10.0
 40
11.0
 40
11.0
 40
11.0
 40
12.0
 40
12.0
 40
12.0
 40
13.0
 40
13.0
 40
13.0
 40
14.0
 40
14.0
 40
14.0
 40
15.0
 40
15.0
 40
15.0
 40
16.0
 40
16.0
 40
16.0
 40
17.0
 40
17.0
 40
17.0
 40
18.0
 40
18.0
 40
18.0
 40
19.0
 40
19.0
 40
19.0
 40
20.0
 40
20.0
 40
20.0
 40
21.0
 40
21.0
 40
21.0
 40
22.0
 40
22.0
 40
22.0
 40
22.0
 10
8.823210797134818
 20
22.08227776261938
 30
0.0
 10
8.823210797134818
 20
22.08227776261938
 30
0.0
 10
8.796892516097984
 20
22.18647667121419
 30
0.0
 10
8.796892516097984
 20
22.18647667121419
 30
0.0
 10
8.711313343746914
 20
22.16463428831288
 30
0.0
 10
8.646054748931089
 20
22.12533590268304
 30
0.0
 10
8.601116731650507
 20
22.0685815143247
 30
0.0
 10
8.556178714369926
 20
22.01182712596636
 30
0.0
 10
8.533709705729635
 20
21.94245070486586
 30
0.0
 10
8.533709705729635
 20
21.8604522510232
 30
0.0
 10
8.533709705729635
 20
21.77558922237381
 30
0.0
 10
8.550986672532726
 20
21.70657087312416
 30
0.0
 10
8.585540606138911
 20
21.65339720327422
 30
0.0
 10
8.620094539745095
 20
21.60022353342429
 30
0.0
 10
8.670135080900167
 20
21.55976141427923
 30
0.0
 10
8.735662229604122
 20
21.53201084583903
 30
0.0
 10
8.801189378308079
 20
21.50426027739883
 30
0.0
 10
8.871550496998392
 20
21.49038499317872
 30
0.0
 10
8.946745585675064
 20
21.49038499317872
 30
0.0
 10
9.02874403951772
 20
21.49038499317872
 30
0.0
 10
9.100268891723267
 20
21.50605063665303
 30
0.0
 10
9.161320142291707
 20
21.53738192360165
 30
0.0
 10
9.222371392860149
 20
21.56871321055026
 30
0.0
 10
9.268741697544096
 20
21.61329315598
 30
0.0
 10
9.30043105634355
 20
21.67112175989087
 30
0.0
 10
9.332120415143004
 20
21.72895036380174
 30
0.0
 10
9.347965094542731
 20
21.79259763528877
 30
0.0
 10
9.347965094542731
 20
21.86206357435199
 30
0.0
 10
9.347965094542731
 20
21.94083938153707
 30
0.0
 10
9.327913070895619
 20
22.0070826739427
 30
0.0
 10
9.287809023601394
 20
22.06079345156891
 30
0.0
 10
9.247704976307169
 20
22.1145042291951
 30
0.0
 10
9.191308659799667
 20
22.15192273760802
 30
0.0
 10
9.118620074078883
 20
22.17304897680765
 30
0.0
 10
9.118620074078883
 20
22.17304897680765
 30
0.0
 10
9.094450224147097
 20
22.07046139154162
 30
0.0
 10
9.094450224147097
 20
22.07046139154162
 30
0.0
 10
9.151741720281704
 20
22.05219972714871
 30
0.0
 10
9.193457090904714
 20
22.02570241018645
 30
0.0
 10
9.219596336016128
 20
21.99096944065485
 30
0.0
 10
9.245735581127542
 20
21.95623647112325
 30
0.0
 10
9.25880520368325
 20
21.91255170532061
 30
0.0
 10
9.25880520368325
 20
21.85991514324694
 30
0.0
 10
9.25880520368325
 20
21.79940100045476
 30
0.0
 10
9.244303293724178
 20
21.74882335152343
 30
0.0
 10
9.215299473806033
 20
21.70818219645295
 30
0.0
 10
9.186295653887887
 20
21.66754104138246
 30
0.0
 10
9.147355340108897
 20
21.63898481127786
 30
0.0
 10
9.098478532469061
 20
21.62251350613916
 30
0.0
 10
9.049601724829225
 20
21.60604220100046
 30
0.0
 10
8.999203111823313
 20
21.59780654843111
 30
0.0
 10
8.947282693451326
 20
21.59780654843111
 30
0.0
 10
8.880323257344005
 20
21.59780654843111
 30
0.0
 10
8.821868027694164
 20
21.60756400636654
 30
0.0
 10
8.771917004501804
 20
21.62707892223739
 30
0.0
 10
8.721965981309443
 20
21.64659383810824
 30
0.0
 10
8.684636990859238
 20
21.67694042746704
 30
0.0
 10
8.65993003315119
 20
21.71811869031379
 30
0.0
 10
8.635223075443141
 20
21.75929695316054
 30
0.0
 10
8.622869596589116
 20
21.80387689859028
 30
0.0
 10
8.622869596589116
 20
21.85185852660301
 30
0.0
 10
8.622869596589116
 20
21.91022423829013
 30
0.0
 10
8.639698973578657
 20
21.95963815370624
 30
0.0
 10
8.673357727557738
 20
22.00010027285131
 30
0.0
 10
8.70701648153682
 20
22.04056239199637
 30
0.0
 10
8.756967504729179
 20
22.06795488858573
 30
0.0
 10
8.823210797134818
 20
22.08227776261938
 30
0.0
  0
SPLINE
  5
211
330
1F
100
AcDbEntity
  8
0
  6
Continuous
 62
    14
420
 10813440
370
    25
100
AcDbSpline
210
0.0
220
0.0
230
1.0
 70
    11
 71
     3
 72
    38
 73
    34
 74
     0
 42
0.000000001
 43
0.0
 40
0.0
 40
0.0
 40
0.0
 40
0.0
 40
1.0
 40
1.0
 40
1.0
 40
2.0
 40
2.0
 40
2.0
 40
3.0
 40
3.0
 40
3.0
 40
4.0
 40
4.0
 40
4.0
 40
5.0
 40
5.0
 40
5.0
 40
6.0
 40
6.0
 40
6.0
 40
7.0
 40
7.0
 40
7.0
 40
8.0
 40
8.0
 40
8.0
 40
9.0
 40
9.0
 40
9.0
 40
10.0
 40
10.0
 40
10.0
 40
11.0
 40
11.0
 40
11.0
 40
11.0
 10
8.930632352387207
 20
22.28315607094135
 30
0.0
 10
9.061328577944279
 20
22.28315607094135
 30
0.0
 10
9.163647609322176
 20
22.3182471123238
 30
0.0
 10
9.237589446520902
 20
22.38842919508869
 30
0.0
 10
9.31153128371963
 20
22.45861127785358
 30
0.0
 10
9.348502202318993
 20
22.54920345611642
 30
0.0
 10
9.348502202318993
 20
22.66020572987723
 30
0.0
 10
9.348502202318993
 20
22.73289431559801
 30
0.0
 10
9.33113571755319
 20
22.79842146430196
 30
0.0
 10
9.296402748021585
 20
22.8567871759891
 30
0.0
 10
9.26166977848998
 20
22.91515288767622
 30
0.0
 10
9.213240560663696
 20
22.95964331514326
 30
0.0
 10
9.151115094542732
 20
22.99025845839019
 30
0.0
 10
9.088989628421768
 20
23.02087360163712
 30
0.0
 10
9.018538991768743
 20
23.03618117326059
 30
0.0
 10
8.939763184583658
 20
23.03618117326059
 30
0.0
 10
8.859913161846052
 20
23.03618117326059
 30
0.0
 10
8.788477827603215
 20
23.02006793997273
 30
0.0
 10
8.725457181855145
 20
22.98784147339701
 30
0.0
 10
8.662436536107078
 20
22.9556150068213
 30
0.0
 10
8.614723461982477
 20
22.90996084583902
 30
0.0
 10
8.582317959481339
 20
22.85087899045021
 30
0.0
 10
8.549912456980204
 20
22.7917971350614
 30
0.0
 10
8.533709705729635
 20
22.72806034561165
 30
0.0
 10
8.533709705729635
 20
22.65966862210097
 30
0.0
 10
8.533709705729635
 20
22.58554774897682
 30
0.0
 10
8.551613298271699
 20
22.51930445657118
 30
0.0
 10
8.587420483355828
 20
22.46093874488405
 30
0.0
 10
8.623227668439956
 20
22.40257303319692
 30
0.0
 10
8.672104476079793
 20
22.35835115961802
 30
0.0
 10
8.734050906275337
 20
22.32827312414735
 30
0.0
 10
8.79599733647088
 20
22.29819508867669
 30
0.0
 10
8.861524485174836
 20
22.28315607094135
 30
0.0
 10
8.930632352387207
 20
22.28315607094135
 30
0.0
  0
SPLINE
  5
212
330
1F
100
AcDbEntity
  8
0
  6
Continuous
 62
    14
420
 10813440
370
    25
100
AcDbSpline
210
0.0
220
0.0
230
1.0
 70
    11
 71
     3
 72
    32
 73
    28
 74
     0
 42
0.000000001
 43
0.0
 40
0.0
 40
0.0
 40
0.0
 40
0.0
 40
1.0
 40
1.0
 40
1.0
 40
2.0
 40
2.0
 40
2.0
 40
3.0
 40
3.0
 40
3.0
 40
4.0
 40
4.0
 40
4.0
 40
5.0
 40
5.0
 40
5.0
 40
6.0
 40
6.0
 40
6.0
 40
7.0
 40
7.0
 40
7.0
 40
8.0
 40
8.0
 40
8.0
 40
9.0
 40
9.0
 40
9.0
 40
9.0
 10
8.92902102905842
 20
22.39057762619373
 30
0.0
 10
8.834131988585478
 20
22.39057762619373
 30
0.0
 10
8.75938448972236
 20
22.41609024556617
 30
0.0
 10
8.704778532469062
 20
22.46711548431106
 30
0.0
 10
8.650172575215764
 20
22.51814072305594
 30
0.0
 10
8.622869596589116
 20
22.58214606639383
 30
0.0
 10
8.622869596589116
 20
22.65913151432471
 30
0.0
 10
8.622869596589116
 20
22.73754924965895
 30
0.0
 10
8.650441129103896
 20
22.8020917007731
 30
0.0
 10
8.705584194133454
 20
22.85275886766713
 30
0.0
 10
8.760727259163014
 20
22.90342603456117
 30
0.0
 10
8.838965958571835
 20
22.92875961800819
 30
0.0
 10
8.940300292359922
 20
22.92875961800819
 30
0.0
 10
9.004395153660512
 20
22.92875961800819
 30
0.0
 10
9.060343880354464
 20
22.91792794452025
 30
0.0
 10
9.108146472441776
 20
22.89626459754435
 30
0.0
 10
9.15594906452909
 20
22.87460125056845
 30
0.0
 10
9.193009501091163
 20
22.842911891769
 30
0.0
 10
9.219327782127998
 20
22.80119652114599
 30
0.0
 10
9.245646063164832
 20
22.75948115052297
 30
0.0
 10
9.25880520368325
 20
22.71266325602548
 30
0.0
 10
9.25880520368325
 20
22.66074283765349
 30
0.0
 10
9.25880520368325
 20
22.58698003638018
 30
0.0
 10
9.233471620236228
 20
22.52351180081857
 30
0.0
 10
9.182804453342184
 20
22.47033813096863
 30
0.0
 10
9.132137286448142
 20
22.4171644611187
 30
0.0
 10
9.047542811686887
 20
22.39057762619373
 30
0.0
 10
8.92902102905842
 20
22.39057762619373
 30
0.0
  0
LWPOLYLINE
  5
213
330
1F
100
AcDbEntity
  8
0
  6
Continuous
 62
    14
420
 10813440
370
    25
100
AcDbPolyline
 90
       11
 70
     1
 43
0.0
 10
8.547137400136183
 20
23.16938390177354
 10
9.334537400136183
 20
23.16938390177354
 10
9.334537400136183
 20
23.27626834924967
 10
8.716326349658694
 20
23.68984133697136
 10
9.334537400136183
 20
23.68984133697136
 10
9.334537400136183
 20
23.78974338335608
 10
8.547137400136183
 20
23.78974338335608
 10
8.547137400136183
 20
23.68285893587996
 10
9.165885558389935
 20
23.26928594815826
 10
8.547137400136183
 20
23.26928594815826
 10
8.547137400136183
 20
23.16938390177354
  0
SPLINE
  5
214
330
1F
100
AcDbEntity
  8
0
  6
Continuous
 62
    14
420
 10813440
370
    25
100
AcDbSpline
210
0.0
220
0.0
230
1.0
 70
    11
 71
     3
 72
    95
 73
    91
 74
     0
 42
0.000000001
 43
0.0
 40
0.0
 40
0.0
 40
0.0
 40
0.0
 40
1.0
 40
1.0
 40
1.0
 40
2.0
 40
2.0
 40
2.0
 40
3.0
 40
3.0
 40
3.0
 40
4.0
 40
4.0
 40
4.0
 40
5.0
 40
5.0
 40
5.0
 40
6.0
 40
6.0
 40
6.0
 40
7.0
 40
7.0
 40
7.0
 40
8.0
 40
8.0
 40
8.0
 40
9.0
 40
9.0
 40
9.0
 40
10.0
 40
10.0
 40
10.0
 40
11.0
 40
11.0
 40
11.0
 40
12.0
 40
12.0
 40
12.0
 40
13.0
 40
13.0
 40
13.0
 40
14.0
 40
14.0
 40
14.0
 40
15.0
 40
15.0
 40
15.0
 40
16.0
 40
16.0
 40
16.0
 40
17.0
 40
17.0
 40
17.0
 40
18.0
 40
18.0
 40
18.0
 40
19.0
 40
19.0
 40
19.0
 40
20.0
 40
20.0
 40
20.0
 40
21.0
 40
21.0
 40
21.0
 40
22.0
 40
22.0
 40
22.0
 40
23.0
 40
23.0
 40
23.0
 40
24.0
 40
24.0
 40
24.0
 40
25.0
 40
25.0
 40
25.0
 40
26.0
 40
26.0
 40
26.0
 40
27.0
 40
27.0
 40
27.0
 40
28.0
 40
28.0
 40
28.0
 40
29.0
 40
29.0
 40
29.0
 40
30.0
 40
30.0
 40
30.0
 40
30.0
 10
8.754998109549552
 20
23.92616875852661
 30
0.0
 10
8.754998109549552
 20
23.92616875852661
 30
0.0
 10
8.767888696179838
 20
24.02284815825377
 30
0.0
 10
8.767888696179838
 20
24.02284815825377
 30
0.0
 10
8.71310370300112
 20
24.03394838562984
 30
0.0
 10
8.67362628144587
 20
24.05283667576172
 30
0.0
 10
8.649456431514082
 20
24.07951302864939
 30
0.0
 10
8.625286581582294
 20
24.10618938153707
 30
0.0
 10
8.6132016566164
 20
24.13868440200092
 30
0.0
 10
8.6132016566164
 20
24.17699809004094
 30
0.0
 10
8.6132016566164
 20
24.22247321509778
 30
0.0
 10
8.628956818053418
 20
24.26087642110051
 30
0.0
 10
8.660467140927452
 20
24.29220770804913
 30
0.0
 10
8.691977463801486
 20
24.32353899499774
 30
0.0
 10
8.731007295543186
 20
24.33920463847204
 30
0.0
 10
8.777556636152553
 20
24.33920463847204
 30
0.0
 10
8.821957545656874
 20
24.33920463847204
 30
0.0
 10
8.858570392405396
 20
24.32470272851297
 30
0.0
 10
8.887395176398119
 20
24.29569890859482
 30
0.0
 10
8.916219960390844
 20
24.26669508867668
 30
0.0
 10
8.930632352387207
 20
24.22981368804003
 30
0.0
 10
8.930632352387207
 20
24.18505470668487
 30
0.0
 10
8.930632352387207
 20
24.16679304229196
 30
0.0
 10
8.927051633878794
 20
24.14405547976354
 30
0.0
 10
8.919890196861967
 20
24.1168420190996
 30
0.0
 10
8.919890196861967
 20
24.1168420190996
 30
0.0
 10
9.004753225511354
 20
24.12758417462484
 30
0.0
 10
9.004753225511354
 20
24.12758417462484
 30
0.0
 10
9.00403708180967
 20
24.13402946793998
 30
0.0
 10
9.00367900995883
 20
24.13922150977718
 30
0.0
 10
9.00367900995883
 20
24.14316030013644
 30
0.0
 10
9.00367900995883
 20
24.18433856298318
 30
0.0
 10
9.014421165484068
 20
24.22139899954526
 30
0.0
 10
9.035905476534545
 20
24.25434160982265
 30
0.0
 10
9.057389787585024
 20
24.28728422010006
 30
0.0
 10
9.090511433787842
 20
24.30375552523876
 30
0.0
 10
9.135270415143003
 20
24.30375552523876
 30
0.0
 10
9.170719528376292
 20
24.30375552523876
 30
0.0
 10
9.200081420145278
 20
24.29176011823557
 30
0.0
 10
9.223356090449961
 20
24.2677693042292
 30
0.0
 10
9.246630760754645
 20
24.24377849022284
 30
0.0
 10
9.258268095906988
 20
24.21280527512506
 30
0.0
 10
9.258268095906988
 20
24.17484965893589
 30
0.0
 10
9.258268095906988
 20
24.13725211459756
 30
0.0
 10
9.246451724829226
 20
24.10592082764894
 30
0.0
 10
9.2228189826737
 20
24.08085579809005
 30
0.0
 10
9.199186240518175
 20
24.05579076853116
 30
0.0
 10
9.163737127284886
 20
24.03967753524331
 30
0.0
 10
9.116471642973837
 20
24.03251609822648
 30
0.0
 10
9.116471642973837
 20
24.03251609822648
 30
0.0
 10
9.133659091814218
 20
23.93583669849933
 30
0.0
 10
9.133659091814218
 20
23.93583669849933
 30
0.0
 10
9.198470096816491
 20
23.94765306957709
 30
0.0
 10
9.248689673896983
 20
23.97450845839019
 30
0.0
 10
9.28431782305569
 20
24.01640286493862
 30
0.0
 10
9.3199459722144
 20
24.05829727148705
 30
0.0
 10
9.337760046793754
 20
24.11039672578445
 30
0.0
 10
9.337760046793754
 20
24.17270122783084
 30
0.0
 10
9.337760046793754
 20
24.21566984993179
 30
0.0
 10
9.328539696634591
 20
24.25523678944976
 30
0.0
 10
9.310098996316265
 20
24.29140204638473
 30
0.0
 10
9.291658295997937
 20
24.3275673033197
 30
0.0
 10
9.266503748476337
 20
24.35522835379719
 30
0.0
 10
9.234635353751463
 20
24.3743851978172
 30
0.0
 10
9.202766959026588
 20
24.39354204183721
 30
0.0
 10
9.168929169122086
 20
24.40312046384722
 30
0.0
 10
9.133121984037956
 20
24.40312046384722
 30
0.0
 10
9.099105158208035
 20
24.40312046384722
 30
0.0
 10
9.068131943110261
 20
24.39398963165076
 30
0.0
 10
9.040202338744642
 20
24.37572796725785
 30
0.0
 10
9.012272734379021
 20
24.35746630286495
 30
0.0
 10
8.99007227962686
 20
24.33043187812643
 30
0.0
 10
8.97360097448816
 20
24.2946246930423
 30
0.0
 10
8.962858818962923
 20
24.34117403365167
 30
0.0
 10
8.940568846248052
 20
24.37733929058664
 30
0.0
 10
8.90673105634355
 20
24.40312046384722
 30
0.0
 10
8.872893266439048
 20
24.42890163710778
 30
0.0
 10
8.830551270077065
 20
24.44179222373808
 30
0.0
 10
8.779705067257602
 20
24.44179222373808
 30
0.0
 10
8.710955271896074
 20
24.44179222373808
 30
0.0
 10
8.652679078171653
 20
24.41672719417918
 30
0.0
 10
8.60487648608434
 20
24.3665971350614
 30
0.0
 10
8.557073893997028
 20
24.31646707594362
 30
0.0
 10
8.533172597953373
 20
24.25308835834471
 30
0.0
 10
8.533172597953373
 20
24.17646098226468
 30
0.0
 10
8.533172597953373
 20
24.10735311505231
 30
0.0
 10
8.553761729376747
 20
24.04997210095499
 30
0.0
 10
8.594939992223495
 20
24.00431793997272
 30
0.0
 10
8.636118255070244
 20
23.95866377899046
 30
0.0
 10
8.689470960845595
 20
23.93261405184176
 30
0.0
 10
8.754998109549552
 20
23.92616875852661
 30
0.0
  0
SPLINE
  5
215
330
1F
100
AcDbEntity
  8
0
  6
Continuous
 62
    14
420
 10813440
370
    25
100
AcDbSpline
210
0.0
220
0.0
230
1.0
 70
    11
 71
     3
 72
    71
 73
    67
 74
     0
 42
0.000000001
 43
0.0
 40
0.0
 40
0.0
 40
0.0
 40
0.0
 40
1.0
 40
1.0
 40
1.0
 40
2.0
 40
2.0
 40
2.0
 40
3.0
 40
3.0
 40
3.0
 40
4.0
 40
4.0
 40
4.0
 40
5.0
 40
5.0
 40
5.0
 40
6.0
 40
6.0
 40
6.0
 40
7.0
 40
7.0
 40
7.0
 40
8.0
 40
8.0
 40
8.0
 40
9.0
 40
9.0
 40
9.0
 40
10.0
 40
10.0
 40
10.0
 40
11.0
 40
11.0
 40
11.0
 40
12.0
 40
12.0
 40
12.0
 40
13.0
 40
13.0
 40
13.0
 40
14.0
 40
14.0
 40
14.0
 40
15.0
 40
15.0
 40
15.0
 40
16.0
 40
16.0
 40
16.0
 40
17.0
 40
17.0
 40
17.0
 40
18.0
 40
18.0
 40
18.0
 40
19.0
 40
19.0
 40
19.0
 40
20.0
 40
20.0
 40
20.0
 40
21.0
 40
21.0
 40
21.0
 40
22.0
 40
22.0
 40
22.0
 40
22.0
 10
53.22241079713481
 20
46.31387776261937
 30
0.0
 10
53.22241079713481
 20
46.31387776261937
 30
0.0
 10
53.19609251609798
 20
46.41807667121419
 30
0.0
 10
53.19609251609798
 20
46.41807667121419
 30
0.0
 10
53.11051334374691
 20
46.39623428831287
 30
0.0
 10
53.04525474893109
 20
46.35693590268304
 30
0.0
 10
53.0003167316505
 20
46.30018151432469
 30
0.0
 10
52.95537871436992
 20
46.24342712596635
 30
0.0
 10
52.93290970572964
 20
46.17405070486585
 30
0.0
 10
52.93290970572964
 20
46.09205225102319
 30
0.0
 10
52.93290970572964
 20
46.00718922237381
 30
0.0
 10
52.95018667253272
 20
45.93817087312415
 30
0.0
 10
52.9847406061389
 20
45.88499720327422
 30
0.0
 10
53.01929453974509
 20
45.83182353342428
 30
0.0
 10
53.06933508090016
 20
45.79136141427922
 30
0.0
 10
53.13486222960412
 20
45.76361084583902
 30
0.0
 10
53.20038937830807
 20
45.73586027739881
 30
0.0
 10
53.27075049699839
 20
45.72198499317872
 30
0.0
 10
53.34594558567505
 20
45.72198499317872
 30
0.0
 10
53.42794403951771
 20
45.72198499317872
 30
0.0
 10
53.49946889172326
 20
45.73765063665302
 30
0.0
 10
53.5605201422917
 20
45.76898192360164
 30
0.0
 10
53.62157139286014
 20
45.80031321055025
 30
0.0
 10
53.66794169754409
 20
45.84489315597999
 30
0.0
 10
53.69963105634354
 20
45.90272175989086
 30
0.0
 10
53.731320415143
 20
45.96055036380173
 30
0.0
 10
53.74716509454272
 20
46.02419763528877
 30
0.0
 10
53.74716509454272
 20
46.09366357435198
 30
0.0
 10
53.74716509454272
 20
46.17243938153706
 30
0.0
 10
53.72711307089561
 20
46.23868267394271
 30
0.0
 10
53.68700902360138
 20
46.2923934515689
 30
0.0
 10
53.64690497630717
 20
46.34610422919509
 30
0.0
 10
53.59050865979966
 20
46.383522737608
 30
0.0
 10
53.51782007407888
 20
46.40464897680764
 30
0.0
 10
53.51782007407888
 20
46.40464897680764
 30
0.0
 10
53.49365022414709
 20
46.30206139154161
 30
0.0
 10
53.49365022414709
 20
46.30206139154161
 30
0.0
 10
53.55094172028169
 20
46.2837997271487
 30
0.0
 10
53.59265709090471
 20
46.25730241018645
 30
0.0
 10
53.61879633601612
 20
46.22256944065484
 30
0.0
 10
53.64493558112754
 20
46.18783647112323
 30
0.0
 10
53.65800520368324
 20
46.1441517053206
 30
0.0
 10
53.65800520368324
 20
46.09151514324693
 30
0.0
 10
53.65800520368324
 20
46.03100100045475
 30
0.0
 10
53.64350329372417
 20
45.98042335152342
 30
0.0
 10
53.61449947380603
 20
45.93978219645294
 30
0.0
 10
53.58549565388788
 20
45.89914104138245
 30
0.0
 10
53.5465553401089
 20
45.87058481127785
 30
0.0
 10
53.49767853246906
 20
45.85411350613916
 30
0.0
 10
53.44880172482922
 20
45.83764220100046
 30
0.0
 10
53.39840311182331
 20
45.82940654843111
 30
0.0
 10
53.34648269345132
 20
45.82940654843111
 30
0.0
 10
53.279523257344
 20
45.82940654843111
 30
0.0
 10
53.22106802769416
 20
45.83916400636653
 30
0.0
 10
53.1711170045018
 20
45.85867892223738
 30
0.0
 10
53.12116598130944
 20
45.87819383810823
 30
0.0
 10
53.08383699085923
 20
45.90854042746703
 30
0.0
 10
53.05913003315118
 20
45.94971869031379
 30
0.0
 10
53.03442307544314
 20
45.99089695316053
 30
0.0
 10
53.02206959658911
 20
46.03547689859027
 30
0.0
 10
53.02206959658911
 20
46.08345852660301
 30
0.0
 10
53.02206959658911
 20
46.14182423829014
 30
0.0
 10
53.03889897357865
 20
46.19123815370623
 30
0.0
 10
53.07255772755774
 20
46.2317002728513
 30
0.0
 10
53.10621648153682
 20
46.27216239199636
 30
0.0
 10
53.15616750472918
 20
46.29955488858572
 30
0.0
 10
53.22241079713481
 20
46.31387776261937
 30
0.0
  0
SPLINE
  5
216
330
1F
100
AcDbEntity
  8
0
  6
Continuous
 62
    14
420
 10813440
370
    25
100
AcDbSpline
210
0.0
220
0.0
230
1.0
 70
    11
 71
     3
 72
    38
 73
    34
 74
     0
 42
0.000000001
 43
0.0
 40
0.0
 40
0.0
 40
0.0
 40
0.0
 40
1.0
 40
1.0
 40
1.0
 40
2.0
 40
2.0
 40
2.0
 40
3.0
 40
3.0
 40
3.0
 40
4.0
 40
4.0
 40
4.0
 40
5.0
 40
5.0
 40
5.0
 40
6.0
 40
6.0
 40
6.0
 40
7.0
 40
7.0
 40
7.0
 40
8.0
 40
8.0
 40
8.0
 40
9.0
 40
9.0
 40
9.0
 40
10.0
 40
10.0
 40
10.0
 40
11.0
 40
11.0
 40
11.0
 40
11.0
 10
53.32983235238719
 20
46.51475607094134
 30
0.0
 10
53.46052857794427
 20
46.51475607094134
 30
0.0
 10
53.56284760932218
 20
46.54984711232379
 30
0.0
 10
53.6367894465209
 20
46.62002919508868
 30
0.0
 10
53.71073128371962
 20
46.69021127785357
 30
0.0
 10
53.74770220231898
 20
46.78080345611642
 30
0.0
 10
53.74770220231898
 20
46.89180572987722
 30
0.0
 10
53.74770220231898
 20
46.964494315598
 30
0.0
 10
53.73033571755318
 20
47.03002146430195
 30
0.0
 10
53.69560274802158
 20
47.08838717598908
 30
0.0
 10
53.66086977848997
 20
47.14675288767621
 30
0.0
 10
53.61244056066369
 20
47.19124331514325
 30
0.0
 10
53.55031509454273
 20
47.22185845839018
 30
0.0
 10
53.48818962842176
 20
47.25247360163711
 30
0.0
 10
53.41773899176874
 20
47.26778117326057
 30
0.0
 10
53.33896318458365
 20
47.26778117326057
 30
0.0
 10
53.25911316184605
 20
47.26778117326057
 30
0.0
 10
53.18767782760321
 20
47.25166793997272
 30
0.0
 10
53.12465718185514
 20
47.219441473397
 30
0.0
 10
53.06163653610707
 20
47.18721500682128
 30
0.0
 10
53.01392346198247
 20
47.14156084583902
 30
0.0
 10
52.98151795948133
 20
47.08247899045021
 30
0.0
 10
52.9491124569802
 20
47.02339713506139
 30
0.0
 10
52.93290970572964
 20
46.95966034561164
 30
0.0
 10
52.93290970572964
 20
46.89126862210096
 30
0.0
 10
52.93290970572964
 20
46.81714774897681
 30
0.0
 10
52.9508132982717
 20
46.75090445657117
 30
0.0
 10
52.98662048335582
 20
46.69253874488404
 30
0.0
 10
53.02242766843995
 20
46.63417303319692
 30
0.0
 10
53.07130447607979
 20
46.58995115961801
 30
0.0
 10
53.13325090627534
 20
46.55987312414734
 30
0.0
 10
53.19519733647087
 20
46.52979508867667
 30
0.0
 10
53.26072448517483
 20
46.51475607094134
 30
0.0
 10
53.32983235238719
 20
46.51475607094134
 30
0.0
  0
SPLINE
  5
217
330
1F
100
AcDbEntity
  8
0
  6
Continuous
 62
    14
420
 10813440
370
    25
100
AcDbSpline
210
0.0
220
0.0
230
1.0
 70
    11
 71
     3
 72
    32
 73
    28
 74
     0
 42
0.000000001
 43
0.0
 40
0.0
 40
0.0
 40
0.0
 40
0.0
 40
1.0
 40
1.0
 40
1.0
 40
2.0
 40
2.0
 40
2.0
 40
3.0
 40
3.0
 40
3.0
 40
4.0
 40
4.0
 40
4.0
 40
5.0
 40
5.0
 40
5.0
 40
6.0
 40
6.0
 40
6.0
 40
7.0
 40
7.0
 40
7.0
 40
8.0
 40
8.0
 40
8.0
 40
9.0
 40
9.0
 40
9.0
 40
9.0
 10
53.32822102905841
 20
46.62217762619373
 30
0.0
 10
53.23333198858547
 20
46.62217762619373
 30
0.0
 10
53.15858448972235
 20
46.64769024556617
 30
0.0
 10
53.10397853246905
 20
46.69871548431105
 30
0.0
 10
53.04937257521576
 20
46.74974072305594
 30
0.0
 10
53.02206959658911
 20
46.81374606639382
 30
0.0
 10
53.02206959658911
 20
46.8907315143247
 30
0.0
 10
53.02206959658911
 20
46.96914924965894
 30
0.0
 10
53.04964112910389
 20
47.03369170077308
 30
0.0
 10
53.10478419413345
 20
47.08435886766712
 30
0.0
 10
53.15992725916301
 20
47.13502603456116
 30
0.0
 10
53.23816595857183
 20
47.16035961800819
 30
0.0
 10
53.33950029235991
 20
47.16035961800819
 30
0.0
 10
53.4035951536605
 20
47.16035961800819
 30
0.0
 10
53.45954388035446
 20
47.14952794452024
 30
0.0
 10
53.50734647244177
 20
47.12786459754434
 30
0.0
 10
53.55514906452909
 20
47.10620125056845
 30
0.0
 10
53.59220950109115
 20
47.07451189176899
 30
0.0
 10
53.61852778212799
 20
47.03279652114598
 30
0.0
 10
53.64484606316483
 20
46.99108115052297
 30
0.0
 10
53.65800520368324
 20
46.94426325602547
 30
0.0
 10
53.65800520368324
 20
46.89234283765348
 30
0.0
 10
53.65800520368324
 20
46.81858003638018
 30
0.0
 10
53.63267162023622
 20
46.75511180081855
 30
0.0
 10
53.58200445334218
 20
46.70193813096863
 30
0.0
 10
53.53133728644814
 20
46.64876446111869
 30
0.0
 10
53.44674281168688
 20
46.62217762619373
 30
0.0
 10
53.32822102905841
 20
46.62217762619373
 30
0.0
  0
LWPOLYLINE
  5
218
330
1F
100
AcDbEntity
  8
0
  6
Continuous
 62
    14
420
 10813440
370
    25
100
AcDbPolyline
 90
       11
 70
     1
 43
0.0
 10
52.94633740013618
 20
47.40098390177354
 10
53.73373740013618
 20
47.40098390177354
 10
53.73373740013618
 20
47.50786834924966
 10
53.11552634965869
 20
47.92144133697136
 10
53.73373740013618
 20
47.92144133697136
 10
53.73373740013618
 20
48.02134338335607
 10
52.94633740013618
 20
48.02134338335607
 10
52.94633740013618
 20
47.91445893587995
 10
53.56508555838992
 20
47.50088594815826
 10
52.94633740013618
 20
47.50088594815826
 10
52.94633740013618
 20
47.40098390177354
  0
SPLINE
  5
219
330
1F
100
AcDbEntity
  8
0
  6
Continuous
 62
    14
420
 10813440
370
    25
100
AcDbSpline
210
0.0
220
0.0
230
1.0
 70
    11
 71
     3
 72
    71
 73
    67
 74
     0
 42
0.000000001
 43
0.0
 40
0.0
 40
0.0
 40
0.0
 40
0.0
 40
1.0
 40
1.0
 40
1.0
 40
2.0
 40
2.0
 40
2.0
 40
3.0
 40
3.0
 40
3.0
 40
4.0
 40
4.0
 40
4.0
 40
5.0
 40
5.0
 40
5.0
 40
6.0
 40
6.0
 40
6.0
 40
7.0
 40
7.0
 40
7.0
 40
8.0
 40
8.0
 40
8.0
 40
9.0
 40
9.0
 40
9.0
 40
10.0
 40
10.0
 40
10.0
 40
11.0
 40
11.0
 40
11.0
 40
12.0
 40
12.0
 40
12.0
 40
13.0
 40
13.0
 40
13.0
 40
14.0
 40
14.0
 40
14.0
 40
15.0
 40
15.0
 40
15.0
 40
16.0
 40
16.0
 40
16.0
 40
17.0
 40
17.0
 40
17.0
 40
18.0
 40
18.0
 40
18.0
 40
19.0
 40
19.0
 40
19.0
 40
20.0
 40
20.0
 40
20.0
 40
21.0
 40
21.0
 40
21.0
 40
22.0
 40
22.0
 40
22.0
 40
22.0
 10
53.03925704542949
 20
48.66533560709414
 30
0.0
 10
53.03925704542949
 20
48.66533560709414
 30
0.0
 10
52.94633740013618
 20
48.66533560709414
 30
0.0
 10
52.94633740013618
 20
48.66533560709414
 30
0.0
 10
52.94633740013618
 20
48.66533560709414
 30
0.0
 10
52.94633740013618
 20
48.14487817189632
 30
0.0
 10
52.94633740013618
 20
48.14487817189632
 30
0.0
 10
52.96961207044087
 20
48.14416202819464
 30
0.0
 10
52.99199156111845
 20
48.14792178262847
 30
0.0
 10
53.01347587216892
 20
48.15615743519782
 30
0.0
 10
53.0489249854022
 20
48.16940609367894
 30
0.0
 10
53.08383699085923
 20
48.1906218508413
 30
0.0
 10
53.11821188854
 20
48.21980470668485
 30
0.0
 10
53.15258678622077
 20
48.24898756252843
 30
0.0
 10
53.19233276166415
 20
48.29115052296498
 30
0.0
 10
53.23744981487015
 20
48.34629358799454
 30
0.0
 10
53.30763189763504
 20
48.43187276034561
 30
0.0
 10
53.36322255247815
 20
48.48970136425648
 30
0.0
 10
53.40422177939947
 20
48.51977939972715
 30
0.0
 10
53.44522100632081
 20
48.54985743519782
 30
0.0
 10
53.48398228417437
 20
48.56489645293316
 30
0.0
 10
53.52050561296019
 20
48.56489645293316
 30
0.0
 10
53.55881930100021
 20
48.56489645293316
 30
0.0
 10
53.59113528553863
 20
48.55120020463848
 30
0.0
 10
53.61745356657547
 20
48.52380770804911
 30
0.0
 10
53.64377184761231
 20
48.49641521145976
 30
0.0
 10
53.65693098813072
 20
48.46069754433834
 30
0.0
 10
53.65693098813072
 20
48.41665470668485
 30
0.0
 10
53.65693098813072
 20
48.37010536607549
 30
0.0
 10
53.64296618594791
 20
48.33286589358799
 30
0.0
 10
53.61503658158229
 20
48.30493628922238
 30
0.0
 10
53.58710697721666
 20
48.27700668485676
 30
0.0
 10
53.5484352173258
 20
48.26286284674852
 30
0.0
 10
53.49902130190971
 20
48.26250477489768
 30
0.0
 10
53.49902130190971
 20
48.26250477489768
 30
0.0
 10
53.50922634965868
 20
48.16313983628923
 30
0.0
 10
53.50922634965868
 20
48.16313983628923
 30
0.0
 10
53.58334722278283
 20
48.16994320145521
 30
0.0
 10
53.63983305725305
 20
48.19554533879036
 30
0.0
 10
53.67868385306933
 20
48.23994624829468
 30
0.0
 10
53.7175346488856
 20
48.284347157799
 30
0.0
 10
53.73696004679375
 20
48.34396612096408
 30
0.0
 10
53.73696004679375
 20
48.41880313778991
 30
0.0
 10
53.73696004679375
 20
48.49435629831741
 30
0.0
 10
53.71601284351953
 20
48.55415429740792
 30
0.0
 10
53.6741184369711
 20
48.59819713506139
 30
0.0
 10
53.63222403042267
 20
48.64223997271488
 30
0.0
 10
53.58030361205068
 20
48.66426139154161
 30
0.0
 10
53.51835718185514
 20
48.66426139154161
 30
0.0
 10
53.48684685898111
 20
48.66426139154161
 30
0.0
 10
53.45587364388334
 20
48.65781609822646
 30
0.0
 10
53.42543753656182
 20
48.64492551159618
 30
0.0
 10
53.39500142924031
 20
48.63203492496589
 30
0.0
 10
53.36295399859002
 20
48.61064013187813
 30
0.0
 10
53.32929524461093
 20
48.58074113233288
 30
0.0
 10
53.29563649063185
 20
48.55084213278764
 30
0.0
 10
53.24944522187333
 20
48.50115966348341
 30
0.0
 10
53.19072143833537
 20
48.43169372442019
 30
0.0
 10
53.14202366662094
 20
48.3736860845839
 30
0.0
 10
53.10899153838083
 20
48.33644661209641
 30
0.0
 10
53.09162505361503
 20
48.31997530695771
 30
0.0
 10
53.07425856884923
 20
48.30350400181901
 30
0.0
 10
53.05680256612072
 20
48.28989727148704
 30
0.0
 10
53.03925704542949
 20
48.2791551159618
 30
0.0
 10
53.03925704542949
 20
48.2791551159618
 30
0.0
 10
53.03925704542949
 20
48.66533560709414
 30
0.0
 10
53.03925704542949
 20
48.66533560709414
 30
0.0
  0
SPLINE
  5
21A
330
1F
100
AcDbEntity
  8
0
  6
Continuous
 62
    14
420
 10813440
370
    25
100
AcDbSpline
210
0.0
220
0.0
230
1.0
 70
    11
 71
     3
 72
    71
 73
    67
 74
     0
 42
0.000000001
 43
0.0
 40
0.0
 40
0.0
 40
0.0
 40
0.0
 40
1.0
 40
1.0
 40
1.0
 40
2.0
 40
2.0
 40
2.0
 40
3.0
 40
3.0
 40
3.0
 40
4.0
 40
4.0
 40
4.0
 40
5.0
 40
5.0
 40
5.0
 40
6.0
 40
6.0
 40
6.0
 40
7.0
 40
7.0
 40
7.0
 40
8.0
 40
8.0
 40
8.0
 40
9.0
 40
9.0
 40
9.0
 40
10.0
 40
10.0
 40
10.0
 40
11.0
 40
11.0
 40
11.0
 40
12.0
 40
12.0
 40
12.0
 40
13.0
 40
13.0
 40
13.0
 40
14.0
 40
14.0
 40
14.0
 40
15.0
 40
15.0
 40
15.0
 40
16.0
 40
16.0
 40
16.0
 40
17.0
 40
17.0
 40
17.0
 40
18.0
 40
18.0
 40
18.0
 40
19.0
 40
19.0
 40
19.0
 40
20.0
 40
20.0
 40
20.0
 40
21.0
 40
21.0
 40
21.0
 40
22.0
 40
22.0
 40
22.0
 40
22.0
 10
8.721610797134817
 20
46.97427776261938
 30
0.0
 10
8.721610797134817
 20
46.97427776261938
 30
0.0
 10
8.695292516097982
 20
47.07847667121419
 30
0.0
 10
8.695292516097982
 20
47.07847667121419
 30
0.0
 10
8.609713343746913
 20
47.05663428831288
 30
0.0
 10
8.544454748931088
 20
47.01733590268304
 30
0.0
 10
8.499516731650505
 20
46.9605815143247
 30
0.0
 10
8.454578714369925
 20
46.90382712596636
 30
0.0
 10
8.432109705729633
 20
46.83445070486586
 30
0.0
 10
8.432109705729633
 20
46.7524522510232
 30
0.0
 10
8.432109705729633
 20
46.66758922237381
 30
0.0
 10
8.449386672532725
 20
46.59857087312415
 30
0.0
 10
8.48394060613891
 20
46.54539720327422
 30
0.0
 10
8.518494539745094
 20
46.49222353342429
 30
0.0
 10
8.568535080900165
 20
46.45176141427923
 30
0.0
 10
8.63406222960412
 20
46.42401084583902
 30
0.0
 10
8.699589378308078
 20
46.39626027739882
 30
0.0
 10
8.76995049699839
 20
46.38238499317873
 30
0.0
 10
8.845145585675063
 20
46.38238499317873
 30
0.0
 10
8.927144039517719
 20
46.38238499317873
 30
0.0
 10
8.998668891723266
 20
46.39805063665303
 30
0.0
 10
9.059720142291706
 20
46.42938192360165
 30
0.0
 10
9.120771392860147
 20
46.46071321055025
 30
0.0
 10
9.167141697544093
 20
46.50529315598
 30
0.0
 10
9.198831056343549
 20
46.56312175989087
 30
0.0
 10
9.230520415143003
 20
46.62095036380173
 30
0.0
 10
9.24636509454273
 20
46.68459763528877
 30
0.0
 10
9.24636509454273
 20
46.75406357435199
 30
0.0
 10
9.24636509454273
 20
46.83283938153707
 30
0.0
 10
9.226313070895618
 20
46.89908267394271
 30
0.0
 10
9.186209023601393
 20
46.9527934515689
 30
0.0
 10
9.146104976307168
 20
47.0065042291951
 30
0.0
 10
9.089708659799665
 20
47.04392273760801
 30
0.0
 10
9.017020074078882
 20
47.06504897680765
 30
0.0
 10
9.017020074078882
 20
47.06504897680765
 30
0.0
 10
8.992850224147096
 20
46.96246139154162
 30
0.0
 10
8.992850224147096
 20
46.96246139154162
 30
0.0
 10
9.050141720281703
 20
46.94419972714871
 30
0.0
 10
9.091857090904712
 20
46.91770241018646
 30
0.0
 10
9.117996336016127
 20
46.88296944065485
 30
0.0
 10
9.144135581127541
 20
46.84823647112324
 30
0.0
 10
9.15720520368325
 20
46.80455170532061
 30
0.0
 10
9.15720520368325
 20
46.75191514324693
 30
0.0
 10
9.15720520368325
 20
46.69140100045476
 30
0.0
 10
9.142703293724177
 20
46.64082335152342
 30
0.0
 10
9.113699473806031
 20
46.60018219645293
 30
0.0
 10
9.084695653887886
 20
46.55954104138245
 30
0.0
 10
9.045755340108895
 20
46.53098481127786
 30
0.0
 10
8.99687853246906
 20
46.51451350613916
 30
0.0
 10
8.948001724829224
 20
46.49804220100046
 30
0.0
 10
8.897603111823312
 20
46.48980654843111
 30
0.0
 10
8.845682693451325
 20
46.48980654843111
 30
0.0
 10
8.778723257344003
 20
46.48980654843111
 30
0.0
 10
8.720268027694162
 20
46.49956400636654
 30
0.0
 10
8.670317004501802
 20
46.51907892223738
 30
0.0
 10
8.620365981309442
 20
46.53859383810824
 30
0.0
 10
8.583036990859236
 20
46.56894042746704
 30
0.0
 10
8.558330033151188
 20
46.61011869031378
 30
0.0
 10
8.53362307544314
 20
46.65129695316054
 30
0.0
 10
8.521269596589114
 20
46.69587689859027
 30
0.0
 10
8.521269596589114
 20
46.74385852660301
 30
0.0
 10
8.521269596589114
 20
46.80222423829014
 30
0.0
 10
8.538098973578656
 20
46.85163815370623
 30
0.0
 10
8.571757727557737
 20
46.89210027285131
 30
0.0
 10
8.605416481536817
 20
46.93256239199637
 30
0.0
 10
8.655367504729178
 20
46.95995488858573
 30
0.0
 10
8.721610797134817
 20
46.97427776261938
 30
0.0
  0
SPLINE
  5
21B
330
1F
100
AcDbEntity
  8
0
  6
Continuous
 62
    14
420
 10813440
370
    25
100
AcDbSpline
210
0.0
220
0.0
230
1.0
 70
    11
 71
     3
 72
    38
 73
    34
 74
     0
 42
0.000000001
 43
0.0
 40
0.0
 40
0.0
 40
0.0
 40
0.0
 40
1.0
 40
1.0
 40
1.0
 40
2.0
 40
2.0
 40
2.0
 40
3.0
 40
3.0
 40
3.0
 40
4.0
 40
4.0
 40
4.0
 40
5.0
 40
5.0
 40
5.0
 40
6.0
 40
6.0
 40
6.0
 40
7.0
 40
7.0
 40
7.0
 40
8.0
 40
8.0
 40
8.0
 40
9.0
 40
9.0
 40
9.0
 40
10.0
 40
10.0
 40
10.0
 40
11.0
 40
11.0
 40
11.0
 40
11.0
 10
8.829032352387205
 20
47.17515607094134
 30
0.0
 10
8.959728577944276
 20
47.17515607094134
 30
0.0
 10
9.062047609322175
 20
47.21024711232379
 30
0.0
 10
9.1359894465209
 20
47.28042919508869
 30
0.0
 10
9.209931283719628
 20
47.35061127785357
 30
0.0
 10
9.246902202318992
 20
47.44120345611643
 30
0.0
 10
9.246902202318992
 20
47.55220572987723
 30
0.0
 10
9.246902202318992
 20
47.62489431559801
 30
0.0
 10
9.229535717553189
 20
47.69042146430196
 30
0.0
 10
9.194802748021583
 20
47.74878717598909
 30
0.0
 10
9.160069778489978
 20
47.80715288767622
 30
0.0
 10
9.111640560663693
 20
47.85164331514325
 30
0.0
 10
9.04951509454273
 20
47.88225845839018
 30
0.0
 10
8.987389628421766
 20
47.91287360163712
 30
0.0
 10
8.916938991768742
 20
47.92818117326058
 30
0.0
 10
8.838163184583657
 20
47.92818117326058
 30
0.0
 10
8.75831316184605
 20
47.92818117326058
 30
0.0
 10
8.686877827603212
 20
47.91206793997272
 30
0.0
 10
8.623857181855143
 20
47.87984147339701
 30
0.0
 10
8.560836536107077
 20
47.84761500682129
 30
0.0
 10
8.513123461982476
 20
47.80196084583902
 30
0.0
 10
8.480717959481337
 20
47.74287899045021
 30
0.0
 10
8.448312456980203
 20
47.6837971350614
 30
0.0
 10
8.432109705729633
 20
47.62006034561165
 30
0.0
 10
8.432109705729633
 20
47.55166862210096
 30
0.0
 10
8.432109705729633
 20
47.47754774897682
 30
0.0
 10
8.450013298271697
 20
47.41130445657117
 30
0.0
 10
8.485820483355827
 20
47.35293874488404
 30
0.0
 10
8.521627668439955
 20
47.29457303319691
 30
0.0
 10
8.570504476079792
 20
47.25035115961802
 30
0.0
 10
8.632450906275336
 20
47.22027312414735
 30
0.0
 10
8.694397336470878
 20
47.19019508867667
 30
0.0
 10
8.759924485174835
 20
47.17515607094134
 30
0.0
 10
8.829032352387205
 20
47.17515607094134
 30
0.0
  0
SPLINE
  5
21C
330
1F
100
AcDbEntity
  8
0
  6
Continuous
 62
    14
420
 10813440
370
    25
100
AcDbSpline
210
0.0
220
0.0
230
1.0
 70
    11
 71
     3
 72
    32
 73
    28
 74
     0
 42
0.000000001
 43
0.0
 40
0.0
 40
0.0
 40
0.0
 40
0.0
 40
1.0
 40
1.0
 40
1.0
 40
2.0
 40
2.0
 40
2.0
 40
3.0
 40
3.0
 40
3.0
 40
4.0
 40
4.0
 40
4.0
 40
5.0
 40
5.0
 40
5.0
 40
6.0
 40
6.0
 40
6.0
 40
7.0
 40
7.0
 40
7.0
 40
8.0
 40
8.0
 40
8.0
 40
9.0
 40
9.0
 40
9.0
 40
9.0
 10
8.827421029058419
 20
47.28257762619373
 30
0.0
 10
8.732531988585476
 20
47.28257762619373
 30
0.0
 10
8.657784489722356
 20
47.30809024556618
 30
0.0
 10
8.60317853246906
 20
47.35911548431106
 30
0.0
 10
8.548572575215763
 20
47.41014072305595
 30
0.0
 10
8.521269596589114
 20
47.47414606639382
 30
0.0
 10
8.521269596589114
 20
47.55113151432469
 30
0.0
 10
8.521269596589114
 20
47.62954924965894
 30
0.0
 10
8.548841129103895
 20
47.69409170077309
 30
0.0
 10
8.603984194133453
 20
47.74475886766713
 30
0.0
 10
8.659127259163013
 20
47.79542603456117
 30
0.0
 10
8.737365958571834
 20
47.8207596180082
 30
0.0
 10
8.83870029235992
 20
47.8207596180082
 30
0.0
 10
8.902795153660511
 20
47.8207596180082
 30
0.0
 10
8.958743880354461
 20
47.80992794452024
 30
0.0
 10
9.006546472441775
 20
47.78826459754434
 30
0.0
 10
9.054349064529088
 20
47.76660125056844
 30
0.0
 10
9.091409501091162
 20
47.73491189176899
 30
0.0
 10
9.117727782127997
 20
47.69319652114598
 30
0.0
 10
9.144046063164831
 20
47.65148115052297
 30
0.0
 10
9.15720520368325
 20
47.60466325602547
 30
0.0
 10
9.15720520368325
 20
47.55274283765348
 30
0.0
 10
9.15720520368325
 20
47.47898003638018
 30
0.0
 10
9.131871620236227
 20
47.41551180081856
 30
0.0
 10
9.081204453342183
 20
47.36233813096862
 30
0.0
 10
9.03053728644814
 20
47.3091644611187
 30
0.0
 10
8.945942811686885
 20
47.28257762619373
 30
0.0
 10
8.827421029058419
 20
47.28257762619373
 30
0.0
  0
LWPOLYLINE
  5
21D
330
1F
100
AcDbEntity
  8
0
  6
Continuous
 62
    14
420
 10813440
370
    25
100
AcDbPolyline
 90
       11
 70
     1
 43
0.0
 10
8.445537400136182
 20
48.06138390177354
 10
9.232937400136182
 20
48.06138390177354
 10
9.232937400136182
 20
48.16826834924967
 10
8.614726349658692
 20
48.58184133697136
 10
9.232937400136182
 20
48.58184133697136
 10
9.232937400136182
 20
48.68174338335608
 10
8.445537400136182
 20
48.68174338335608
 10
8.445537400136182
 20
48.57485893587995
 10
9.064285558389933
 20
48.16128594815826
 10
8.445537400136182
 20
48.16128594815826
 10
8.445537400136182
 20
48.06138390177354
  0
SPLINE
  5
21E
330
1F
100
AcDbEntity
  8
0
  6
Continuous
 62
    14
420
 10813440
370
    25
100
AcDbSpline
210
0.0
220
0.0
230
1.0
 70
    11
 71
     3
 72
    32
 73
    28
 74
     0
 42
0.000000001
 43
0.0
 40
0.0
 40
0.0
 40
0.0
 40
0.0
 40
1.0
 40
1.0
 40
1.0
 40
2.0
 40
2.0
 40
2.0
 40
3.0
 40
3.0
 40
3.0
 40
4.0
 40
4.0
 40
4.0
 40
5.0
 40
5.0
 40
5.0
 40
6.0
 40
6.0
 40
6.0
 40
7.0
 40
7.0
 40
7.0
 40
8.0
 40
8.0
 40
8.0
 40
9.0
 40
9.0
 40
9.0
 40
9.0
 10
8.445537400136182
 20
49.18179072305594
 30
0.0
 10
8.445537400136182
 20
49.18179072305594
 30
0.0
 10
8.445537400136182
 20
49.08511132332879
 30
0.0
 10
8.445537400136182
 20
49.08511132332879
 30
0.0
 10
8.445537400136182
 20
49.08511132332879
 30
0.0
 10
9.061600019508624
 20
49.08511132332879
 30
0.0
 10
9.061600019508624
 20
49.08511132332879
 30
0.0
 10
9.039399564756463
 20
49.06183665302411
 30
0.0
 10
9.017199110004304
 20
49.03131102773989
 30
0.0
 10
8.994998655252143
 20
48.99353444747614
 30
0.0
 10
8.972798200499984
 20
48.95575786721237
 30
0.0
 10
8.956147859435863
 20
48.92183055934517
 30
0.0
 10
8.945047632059783
 20
48.89175252387449
 30
0.0
 10
8.945047632059783
 20
48.89175252387449
 30
0.0
 10
9.03850438512936
 20
48.89175252387449
 30
0.0
 10
9.03850438512936
 20
48.89175252387449
 30
0.0
 10
9.063927486539091
 20
48.94582137335153
 30
0.0
 10
9.094721665711443
 20
48.99308685766258
 30
0.0
 10
9.130886922646413
 20
49.03354897680764
 30
0.0
 10
9.167052179581384
 20
49.07401109595271
 30
0.0
 10
9.20214322096383
 20
49.10265684402002
 30
0.0
 10
9.236160046793753
 20
49.11948622100955
 30
0.0
 10
9.236160046793753
 20
49.11948622100955
 30
0.0
 10
9.236160046793753
 20
49.18179072305594
 30
0.0
 10
9.236160046793753
 20
49.18179072305594
 30
0.0
 10
9.236160046793753
 20
49.18179072305594
 30
0.0
 10
8.445537400136182
 20
49.18179072305594
 30
0.0
 10
8.445537400136182
 20
49.18179072305594
 30
0.0
  0
SPLINE
  5
21F
330
1F
100
AcDbEntity
  8
0
  6
Continuous
 62
   110
420
    65407
370
    25
100
AcDbSpline
210
0.0
220
0.0
230
1.0
 70
    11
 71
     3
 72
    17
 73
    13
 74
     0
 42
0.000000001
 43
0.0
 40
0.0
 40
0.0
 40
0.0
 40
0.0
 40
1.0
 40
1.0
 40
1.0
 40
2.0
 40
2.0
 40
2.0
 40
3.0
 40
3.0
 40
3.0
 40
4.0
 40
4.0
 40
4.0
 40
4.0
 10
55.61953540013618
 20
61.625004
 30
0.0
 10
55.89549236046815
 20
61.625004
 30
0.0
 10
56.11953440013619
 20
61.84904603966803
 30
0.0
 10
56.11953440013619
 20
62.125003
 30
0.0
 10
56.11953440013619
 20
62.40095996033197
 30
0.0
 10
55.89549236046815
 20
62.62500199999999
 30
0.0
 10
55.61953540013618
 20
62.62500199999999
 30
0.0
 10
55.34357843980421
 20
62.62500199999999
 30
0.0
 10
55.11953640013619
 20
62.40095996033197
 30
0.0
 10
55.11953640013619
 20
62.125003
 30
0.0
 10
55.11953640013619
 20
61.84904603966803
 30
0.0
 10
55.34357843980421
 20
61.625004
 30
0.0
 10
55.61953540013618
 20
61.625004
 30
0.0
  0
SPLINE
  5
220
330
1F
100
AcDbEntity
  8
0
  6
Continuous
 62
   110
420
    65407
370
    25
100
AcDbSpline
210
0.0
220
0.0
230
1.0
 70
    11
 71
     3
 72
    17
 73
    13
 74
     0
 42
0.000000001
 43
0.0
 40
0.0
 40
0.0
 40
0.0
 40
0.0
 40
1.0
 40
1.0
 40
1.0
 40
2.0
 40
2.0
 40
2.0
 40
3.0
 40
3.0
 40
3.0
 40
4.0
 40
4.0
 40
4.0
 40
4.0
 10
6.619531400136182
 20
61.625004
 30
0.0
 10
6.895488360468158
 20
61.625004
 30
0.0
 10
7.119530400136182
 20
61.84904603966803
 30
0.0
 10
7.119530400136182
 20
62.125003
 30
0.0
 10
7.119530400136182
 20
62.40095996033197
 30
0.0
 10
6.895488360468158
 20
62.62500199999999
 30
0.0
 10
6.619531400136182
 20
62.62500199999999
 30
0.0
 10
6.343574439804206
 20
62.62500199999999
 30
0.0
 10
6.119532400136181
 20
62.40095996033197
 30
0.0
 10
6.119532400136181
 20
62.125003
 30
0.0
 10
6.119532400136181
 20
61.84904603966803
 30
0.0
 10
6.343574439804206
 20
61.625004
 30
0.0
 10
6.619531400136182
 20
61.625004
 30
0.0
  0
SPLINE
  5
221
330
1F
100
AcDbEntity
  8
0
  6
Continuous
 62
   110
420
    65407
370
    25
100
AcDbSpline
210
0.0
220
0.0
230
1.0
 70
    11
 71
     3
 72
    17
 73
    13
 74
     0
 42
0.000000001
 43
0.0
 40
0.0
 40
0.0
 40
0.0
 40
0.0
 40
1.0
 40
1.0
 40
1.0
 40
2.0
 40
2.0
 40
2.0
 40
3.0
 40
3.0
 40
3.0
 40
4.0
 40
4.0
 40
4.0
 40
4.0
 10
55.61953540013618
 20
2.624995000000013
 30
0.0
 10
55.89549236046815
 20
2.624995000000013
 30
0.0
 10
56.11953440013619
 20
2.849037039668033
 30
0.0
 10
56.11953440013619
 20
3.124994000000001
 30
0.0
 10
56.11953440013619
 20
3.400950960331983
 30
0.0
 10
55.89549236046815
 20
3.624993000000003
 30
0.0
 10
55.61953540013618
 20
3.624993000000003
 30
0.0
 10
55.34357843980421
 20
3.624993000000003
 30
0.0
 10
55.11953640013619
 20
3.400950960331983
 30
0.0
 10
55.11953640013619
 20
3.124994000000001
 30
0.0
 10
55.11953640013619
 20
2.849037039668033
 30
0.0
 10
55.34357843980421
 20
2.624995000000013
 30
0.0
 10
55.61953540013618
 20
2.624995000000013
 30
0.0
  0
SPLINE
  5
222
330
1F
100
AcDbEntity
  8
0
  6
Continuous
 62
   110
420
    65407
370
    25
100
AcDbSpline
210
0.0
220
0.0
230
1.0
 70
    11
 71
     3
 72
    17
 73
    13
 74
     0
 42
0.000000001
 43
0.0
 40
0.0
 40
0.0
 40
0.0
 40
0.0
 40
1.0
 40
1.0
 40
1.0
 40
2.0
 40
2.0
 40
2.0
 40
3.0
 40
3.0
 40
3.0
 40
4.0
 40
4.0
 40
4.0
 40
4.0
 10
6.619531400136182
 20
2.624995000000013
 30
0.0
 10
6.895488360468158
 20
2.624995000000013
 30
0.0
 10
7.119530400136182
 20
2.849037039668033
 30
0.0
 10
7.119530400136182
 20
3.124994000000001
 30
0.0
 10
7.119530400136182
 20
3.400950960331983
 30
0.0
 10
6.895488360468158
 20
3.624993000000003
 30
0.0
 10
6.619531400136182
 20
3.624993000000003
 30
0.0
 10
6.343574439804206
 20
3.624993000000003
 30
0.0
 10
6.119532400136181
 20
3.400950960331983
 30
0.0
 10
6.119532400136181
 20
3.124994000000001
 30
0.0
 10
6.119532400136181
 20
2.849037039668033
 30
0.0
 10
6.343574439804206
 20
2.624995000000013
 30
0.0
 10
6.619531400136182
 20
2.624995000000013
 30
0.0
  0
SPLINE
  5
223
330
1F
100
AcDbEntity
  8
0
  6
Continuous
 62
    25
420
 10839890
370
    25
100
AcDbSpline
210
0.0
220
0.0
230
1.0
 70
    11
 71
     3
 72
    17
 73
    13
 74
     0
 42
0.000000001
 43
0.0
 40
0.0
 40
0.0
 40
0.0
 40
0.0
 40
1.0
 40
1.0
 40
1.0
 40
2.0
 40
2.0
 40
2.0
 40
3.0
 40
3.0
 40
3.0
 40
4.0
 40
4.0
 40
4.0
 40
4.0
 10
58.36954240013618
 20
62.125003
 30
0.0
 10
58.36954074328193
 20
63.64378882345844
 30
0.0
 10
57.13832022359461
 20
64.87500665685427
 30
0.0
 10
55.61953440013618
 20
64.875005
 30
0.0
 10
54.10074857667774
 20
64.87500334314575
 30
0.0
 10
52.86953074328193
 20
63.64378282345843
 30
0.0
 10
52.86953240013618
 20
62.12499700000001
 30
0.0
 10
52.86953405699043
 20
60.60621117654158
 30
0.0
 10
54.10075457667774
 20
59.37499334314575
 30
0.0
 10
55.61954040013618
 20
59.374995
 30
0.0
 10
57.13832622359462
 20
59.37499665685426
 30
0.0
 10
58.36954405699044
 20
60.60621717654156
 30
0.0
 10
58.36954240013618
 20
62.125003
 30
0.0
  0
SPLINE
  5
224
330
1F
100
AcDbEntity
  8
0
  6
Continuous
 62
    25
420
 10839890
370
    25
100
AcDbSpline
210
0.0
220
0.0
230
1.0
 70
    11
 71
     3
 72
    17
 73
    13
 74
     0
 42
0.000000001
 43
0.0
 40
0.0
 40
0.0
 40
0.0
 40
0.0
 40
1.0
 40
1.0
 40
1.0
 40
2.0
 40
2.0
 40
2.0
 40
3.0
 40
3.0
 40
3.0
 40
4.0
 40
4.0
 40
4.0
 40
4.0
 10
9.369538400136182
 20
62.125003
 30
0.0
 10
9.369536743281932
 20
63.64378661431943
 30
0.0
 10
8.138318014455615
 20
64.87500265685425
 30
0.0
 10
6.619534400136183
 20
64.87500100000001
 30
0.0
 10
5.100750785816751
 20
64.87499934314575
 30
0.0
 10
3.869534743281933
 20
63.64378061431944
 30
0.0
 10
3.869536400136182
 20
62.12499700000001
 30
0.0
 10
3.869538056990431
 20
60.60621338568058
 30
0.0
 10
5.100756785816749
 20
59.37499734314576
 30
0.0
 10
6.619540400136181
 20
59.37499900000002
 30
0.0
 10
8.13832401445561
 20
59.37500065685425
 30
0.0
 10
9.369540056990433
 20
60.60621938568057
 30
0.0
 10
9.369538400136182
 20
62.125003
 30
0.0
  0
SPLINE
  5
225
330
1F
100
AcDbEntity
  8
0
  6
Continuous
 62
    25
420
 10839890
370
    25
100
AcDbSpline
210
0.0
220
0.0
230
1.0
 70
    11
 71
     3
 72
    23
 73
    19
 74
     0
 42
0.000000001
 43
0.0
 40
0.0
 40
0.0
 40
0.0
 40
0.0
 40
1.0
 40
1.0
 40
1.0
 40
2.0
 40
2.0
 40
2.0
 40
3.0
 40
3.0
 40
3.0
 40
4.0
 40
4.0
 40
4.0
 40
5.0
 40
5.0
 40
5.0
 40
6.0
 40
6.0
 40
6.0
 40
6.0
 10
58.36954240013618
 20
3.124994000000001
 30
0.0
 10
58.36954399143513
 20
3.854340673141209
 30
0.0
 10
58.07981367976951
 20
4.55381583752397
 30
0.0
 10
57.56408882657378
 20
5.069542941156236
 30
0.0
 10
57.04836397337807
 20
5.585270044788487
 30
0.0
 10
56.34889007327738
 20
5.875003408701069
 30
0.0
 10
55.61954340013618
 20
5.875005000000002
 30
0.0
 10
54.10075757667775
 20
5.875008313708506
 30
0.0
 10
52.86953571384468
 20
4.643791823458429
 30
0.0
 10
52.86953240013618
 20
3.125005999999999
 30
0.0
 10
52.86953080883725
 20
2.395659326858805
 30
0.0
 10
53.15926112050287
 20
1.69618416247603
 30
0.0
 10
53.67498597369858
 20
1.180457058843771
 30
0.0
 10
54.19071082689431
 20
0.6647299552115271
 30
0.0
 10
54.890184726995
 20
0.3749965912989381
 30
0.0
 10
55.61953140013618
 20
0.3749950000000126
 30
0.0
 10
57.13831722359461
 20
0.3749916862915086
 30
0.0
 10
58.36953908642769
 20
1.606208176541571
 30
0.0
 10
58.36954240013618
 20
3.124994000000001
 30
0.0
  0
SPLINE
  5
226
330
1F
100
AcDbEntity
  8
0
  6
Continuous
 62
    25
420
 10839890
370
    25
100
AcDbSpline
210
0.0
220
0.0
230
1.0
 70
    11
 71
     3
 72
    17
 73
    13
 74
     0
 42
0.000000001
 43
0.0
 40
0.0
 40
0.0
 40
0.0
 40
0.0
 40
1.0
 40
1.0
 40
1.0
 40
2.0
 40
2.0
 40
2.0
 40
3.0
 40
3.0
 40
3.0
 40
4.0
 40
4.0
 40
4.0
 40
4.0
 10
9.369538400136182
 20
3.124994000000001
 30
0.0
 10
9.369568499655047
 20
4.643777614319433
 30
0.0
 10
8.138375514455616
 20
5.875019400481136
 30
0.0
 10
6.619591900136183
 20
5.875049500000003
 30
0.0
 10
5.100808285816751
 20
5.875079599518877
 30
0.0
 10
3.869566499655048
 20
4.643886614319442
 30
0.0
 10
3.869536400136182
 20
3.12510300000001
 30
0.0
 10
3.869506300617315
 20
1.606319385680578
 30
0.0
 10
5.100699285816749
 20
0.3750775995188746
 30
0.0
 10
6.619482900136181
 20
0.375047500000008
 30
0.0
 10
8.138266514455614
 20
0.3750174004811413
 30
0.0
 10
9.369508300617316
 20
1.606210385680569
 30
0.0
 10
9.369538400136182
 20
3.124994000000001
 30
0.0
  0
SPLINE
  5
227
330
1F
100
AcDbEntity
  8
0
  6
Continuous
 62
     9
420
 12040119
370
    25
100
AcDbSpline
210
0.0
220
0.0
230
1.0
 70
    11
 71
     3
 72
    29
 73
    25
 74
     0
 42
0.000000001
 43
0.0
 40
0.0
 40
0.0
 40
0.0
 40
0.0
 40
1.0
 40
1.0
 40
1.0
 40
2.0
 40
2.0
 40
2.0
 40
3.0
 40
3.0
 40
3.0
 40
4.0
 40
4.0
 40
4.0
 40
5.0
 40
5.0
 40
5.0
 40
6.0
 40
6.0
 40
6.0
 40
7.0
 40
7.0
 40
7.0
 40
8.0
 40
8.0
 40
8.0
 40
8.0
 10
6.619531400136182
 20
0.125
 30
0.0
 10
6.619531400136182
 20
0.125
 30
0.0
 10
55.61953540013618
 20
0.125
 30
0.0
 10
55.61953540013618
 20
0.125
 30
0.0
 10
57.27638567705999
 20
0.1250015906278179
 30
0.0
 10
58.61952780950836
 20
1.468143723076182
 30
0.0
 10
58.61952940013618
 20
3.124994000000001
 30
0.0
 10
58.61952940013618
 20
3.124994000000001
 30
0.0
 10
58.61952940013618
 20
62.125003
 30
0.0
 10
58.61952940013618
 20
62.125003
 30
0.0
 10
58.61952780950836
 20
63.78185327692382
 30
0.0
 10
57.27638567705999
 20
65.12499540937218
 30
0.0
 10
55.61953540013618
 20
65.124997
 30
0.0
 10
55.61953540013618
 20
65.124997
 30
0.0
 10
6.619531400136182
 20
65.124997
 30
0.0
 10
6.619531400136182
 20
65.124997
 30
0.0
 10
4.962681123212366
 20
65.12499540937218
 30
0.0
 10
3.619538990764002
 20
63.78185327692382
 30
0.0
 10
3.619537400136181
 20
62.125003
 30
0.0
 10
3.619537400136181
 20
62.125003
 30
0.0
 10
3.619537400136182
 20
3.124994000000001
 30
0.0
 10
3.619537400136182
 20
3.124994000000001
 30
0.0
 10
3.619541819183343
 20
1.468144894648844
 30
0.0
 10
4.962682294785019
 20
0.1250044190471726
 30
0.0
 10
6.619531400136182
 20
0.125
 30
0.0
  0
VIEWPORT
  5
22C
330
228
100
AcDbEntity
 67
     1
  8
0
100
AcDbViewport
 10
128.5
 20
97.5
 30
0.0
 40
314.226
 41
222.18
 68
     1
 69
     1
 12
27.624996
 22
32.6249985
 13
0.0
 23
0.0
 14
10.0
 24
10.0
 15
10.0
 25
10.0
 16
0.0
 26
0.0
 36
1.0
 17
0.0
 27
0.0
 37
0.0
 42
50.0
 43
0.0
 44
0.0
 45
222.18
 50
0.0
 51
0.0
 72
   100
 90
   557152
  1

281
     0
 71
     1
 74
     0
110
0.0
120
0.0
130
0.0
111
1.0
121
0.0
131
0.0
112
0.0
122
1.0
132
0.0
 79
     0
146
0.0
170
     0
 61
     5
348
2F
292
     1
282
     1
141
0.0
142
0.0
 63
   256
361
22D
  0
VIEWPORT
  5
22E
330
228
100
AcDbEntity
 67
     1
  8
0
100
AcDbViewport
 10
27.624996
 20
32.6249985
 30
0.0
 40
55.24999199999999
 41
65.249997
 68
     2
 69
     2
 12
31.11953340013618
 22
32.6249985
 13
0.0
 23
0.0
 14
10.0
 24
10.0
 15
10.0
 25
10.0
 16
0.0
 26
0.0
 36
1.0
 17
0.0
 27
0.0
 37
0.0
 42
50.0
 43
0.0
 44
0.0
 45
65.249997
 50
0.0
 51
0.0
 72
   100
 90
   557152
  1

281
     0
 71
     1
 74
     0
110
0.0
120
0.0
130
0.0
111
1.0
121
0.0
131
0.0
112
0.0
122
1.0
132
0.0
 79
     0
146
0.0
170
     0
 61
     5
348
2F
292
     1
282
     1
141
0.0
142
0.0
 63
   256
361
22F
  0
ENDSEC
  0
SECTION
  2
OBJECTS
  0
DICTIONARY
  5
C
330
0
100
AcDbDictionary
281
     1
  3
ACAD_DETAILVIEWSTYLE
350
237
  3
ACAD_GROUP
350
D
  3
ACAD_LAYOUT
350
1A
  3
ACAD_MATERIAL
350
43
  3
ACAD_MLEADERSTYLE
350
5B
  3
ACAD_MLINESTYLE
350
17
  3
ACAD_PLOTSETTINGS
350
19
  3
ACAD_PLOTSTYLENAME
350
E
  3
ACAD_SCALELIST
350
47
  3
ACAD_SECTIONVIEWSTYLE
350
238
  3
ACAD_TABLESTYLE
350
59
  3
ACAD_VISUALSTYLE
350
2A
  3
AcDbVariableDictionary
350
230
  3
ACDB_RECOMPOSE_DATA
350
234
  0
SUN
  5
5D
330
29
100
AcDbSun
 90
        1
290
     0
 63
     7
421
 16777215
 40
1.0
291
     1
 91
  2455826
 92
 54000000
292
     0
 70
     2
 71
   256
280
     1
  0
SUN
  5
22D
330
22C
100
AcDbSun
 90
        1
290
     0
 63
     7
421
 16777215
 40
1.0
291
     1
 91
  2455826
 92
 54000000
292
     0
 70
     2
 71
   256
280
     1
  0
SUN
  5
22F
330
22E
100
AcDbSun
 90
        1
290
     0
 63
     7
421
 16777215
 40
1.0
291
     1
 91
  2455826
 92
 54000000
292
     0
 70
     2
 71
   256
280
     1
  0
DICTIONARY
  5
237
102
{ACAD_REACTORS
330
C
102
}
330
C
100
AcDbDictionary
281
     1
  0
DICTIONARY
  5
D
102
{ACAD_REACTORS
330
C
102
}
330
C
100
AcDbDictionary
281
     1
  0
DICTIONARY
  5
1A
102
{ACAD_REACTORS
330
C
102
}
330
C
100
AcDbDictionary
281
     1
  3
Layout1
350
229
  3
Model
350
22
  0
DICTIONARY
  5
43
102
{ACAD_REACTORS
330
C
102
}
330
C
100
AcDbDictionary
281
     1
  3
ByBlock
350
45
  3
ByLayer
350
44
  3
Global
350
46
  0
DICTIONARY
  5
5B
102
{ACAD_REACTORS
330
C
102
}
330
C
100
AcDbDictionary
281
     1
  3
Standard
350
5C
  0
DICTIONARY
  5
17
102
{ACAD_REACTORS
330
C
102
}
330
C
100
AcDbDictionary
281
     1
  3
Standard
350
18
  0
DICTIONARY
  5
19
102
{ACAD_REACTORS
330
C
102
}
330
C
100
AcDbDictionary
281
     1
  0
ACDBDICTIONARYWDFLT
  5
E
102
{ACAD_REACTORS
330
C
102
}
330
C
100
AcDbDictionary
281
     1
  3
Normal
350
F
100
AcDbDictionaryWithDefault
340
F
  0
DICTIONARY
  5
47
102
{ACAD_REACTORS
330
C
102
}
330
C
100
AcDbDictionary
281
     1
  3
A0
350
48
  3
A1
350
49
  3
A2
350
4A
  3
A3
350
4B
  3
A4
350
4C
  3
A5
350
4D
  3
A6
350
4E
  3
A7
350
4F
  3
A8
350
50
  3
A9
350
51
  3
B0
350
52
  3
B1
350
53
  3
B2
350
54
  3
B3
350
55
  3
B4
350
56
  3
B5
350
57
  3
B6
350
58
  0
DICTIONARY
  5
238
102
{ACAD_REACTORS
330
C
102
}
330
C
100
AcDbDictionary
281
     1
  0
DICTIONARY
  5
59
102
{ACAD_REACTORS
330
C
102
}
330
C
100
AcDbDictionary
281
     1
  3
Standard
350
5A
  0
DICTIONARY
  5
2A
102
{ACAD_REACTORS
330
C
102
}
330
C
100
AcDbDictionary
281
     1
  3
2dWireframe
350
2F
  3
Basic
350
32
  3
Brighten
350
36
  3
ColorChange
350
3A
  3
Conceptual
350
34
  3
Dim
350
35
  3
EdgeColorOff
350
3D
  3
Facepattern
350
39
  3
Flat
350
2B
  3
FlatWithEdges
350
2C
  3
Gouraud
350
2D
  3
GouraudWithEdges
350
2E
  3
Hidden
350
31
  3
JitterOff
350
3B
  3
Linepattern
350
38
  3
OverhangOff
350
3C
  3
Realistic
350
33
  3
Shaded
350
42
  3
Shaded with edges
350
41
  3
Shades of Gray
350
3E
  3
Sketchy
350
3F
  3
Thicken
350
37
  3
Wireframe
350
30
  3
X-Ray
350
40
  0
DICTIONARY
  5
230
102
{ACAD_REACTORS
330
C
102
}
330
C
100
AcDbDictionary
281
     1
  3
CANNOSCALE
350
231
  3
CENTEREXE
350
239
  3
CENTERLTYPEFILE
350
23A
  3
CMLEADERSTYLE
350
236
  3
CTABLESTYLE
350
235
  0
XRECORD
  5
234
102
{ACAD_REACTORS
330
C
102
}
330
C
100
AcDbXrecord
280
     1
 90
        1
330
5A
  0
LAYOUT
  5
229
102
{ACAD_REACTORS
330
1A
102
}
330
1A
100
AcDbPlotSettings
  1

  2
none_device
  4
ISO_A4_(210.00_x_297.00_MM)
  6

 40
0.0
 41
0.0
 42
0.0
 43
0.0
 44
55.24999199999999
 45
65.249997
 46
0.0
 47
0.0
 48
0.0
 49
0.0
140
0.0
141
0.0
142
1.0
143
1.0
 70
   688
 72
     1
 73
     0
 74
     5
  7

 75
    16
 76
     0
 77
     2
 78
   300
147
1.0
148
0.0
149
0.0
100
AcDbLayout
  1
Layout1
 70
     1
 71
     1
 10
-20.0
 20
-7.5
 11
277.0
 21
202.5
 12
0.0
 22
0.0
 32
0.0
 14
55.24999199999999
 24
65.249997
 34
0.0
 15
0.0
 25
0.0
 35
0.0
146
0.0
 13
0.0
 23
0.0
 33
0.0
 16
1.0
 26
0.0
 36
0.0
 17
0.0
 27
1.0
 37
0.0
 76
     0
330
228
331
22C
  0
LAYOUT
  5
22
102
{ACAD_REACTORS
330
1A
102
}
330
1A
100
AcDbPlotSettings
  1

  2
none_device
  4
Letter_(8.50_x_11.00_Inches)
  6

 40
6.35
 41
6.35
 42
6.35000508
 43
6.35000508
 44
215.9
 45
279.4
 46
0.0
 47
0.0
 48
0.0
 49
0.0
140
0.0
141
0.0
142
1.0
143
1.0
 70
  1712
 72
     1
 73
     0
 74
     0
  7

 75
     0
 76
     0
 77
     2
 78
   300
147
1.0
148
0.0
149
0.0
100
AcDbLayout
  1
Model
 70
     1
 71
     0
 10
0.0
 20
0.0
 11
420.0
 21
297.0
 12
0.0
 22
0.0
 32
0.0
 14
1.000000000000000E+20
 24
1.000000000000000E+20
 34
1.000000000000000E+20
 15
-1.000000000000000E+20
 25
-1.000000000000000E+20
 35
-1.000000000000000E+20
146
0.0
 13
0.0
 23
0.0
 33
0.0
 16
1.0
 26
0.0
 36
0.0
 17
0.0
 27
1.0
 37
0.0
 76
     0
330
1F
331
29
  0
MATERIAL
  5
45
102
{ACAD_REACTORS
330
43
102
}
330
43
100
AcDbMaterial
  1
ByBlock
 72
     1
 94
      127
  0
MATERIAL
  5
44
102
{ACAD_REACTORS
330
43
102
}
330
43
100
AcDbMaterial
  1
ByLayer
 72
     1
 94
      127
  0
MATERIAL
  5
46
102
{ACAD_REACTORS
330
43
102
}
330
43
100
AcDbMaterial
  1
Global
 72
     1
 94
      127
  0
MLEADERSTYLE
  5
5C
102
{ACAD_REACTORS
330
5B
102
}
330
5B
100
AcDbMLeaderStyle
179
     2
170
     2
171
     1
172
     0
 90
        2
 40
0.0
 41
0.0
173
     1
 91
-1056964608
340
14
 92
       -2
290
     1
 42
2.0
291
     1
 43
8.0
  3
Standard
341
0
 44
4.0
300

342
11
174
     1
178
     6
175
     1
176
     0
 93
-1056964608
 45
4.0
292
     0
297
     0
 46
4.0
343
0
 94
-1056964608
 47
1.0
 49
1.0
140
1.0
293
     1
141
0.0
294
     1
177
     0
142
1.0
295
     0
296
     0
143
3.75
271
     0
272
     9
273
     9
298
     0
  0
MLINESTYLE
  5
18
102
{ACAD_REACTORS
330
17
102
}
330
17
100
AcDbMlineStyle
  2
Standard
 70
     0
  3

 62
   256
 51
90.0
 52
90.0
 71
     2
 49
0.5
 62
   256
  6
BYLAYER
 49
-0.5
 62
   256
  6
BYLAYER
  0
ACDBPLACEHOLDER
  5
F
102
{ACAD_REACTORS
330
E
102
}
330
E
  0
SCALE
  5
48
102
{ACAD_REACTORS
330
47
102
}
330
47
100
AcDbScale
 70
     0
300
1:1
140
1.0
141
1.0
290
     1
  0
SCALE
  5
49
102
{ACAD_REACTORS
330
47
102
}
330
47
100
AcDbScale
 70
     0
300
1:2
140
1.0
141
2.0
290
     0
  0
SCALE
  5
4A
102
{ACAD_REACTORS
330
47
102
}
330
47
100
AcDbScale
 70
     0
300
1:4
140
1.0
141
4.0
290
     0
  0
SCALE
  5
4B
102
{ACAD_REACTORS
330
47
102
}
330
47
100
AcDbScale
 70
     0
300
1:5
140
1.0
141
5.0
290
     0
  0
SCALE
  5
4C
102
{ACAD_REACTORS
330
47
102
}
330
47
100
AcDbScale
 70
     0
300
1:8
140
1.0
141
8.0
290
     0
  0
SCALE
  5
4D
102
{ACAD_REACTORS
330
47
102
}
330
47
100
AcDbScale
 70
     0
300
1:10
140
1.0
141
10.0
290
     0
  0
SCALE
  5
4E
102
{ACAD_REACTORS
330
47
102
}
330
47
100
AcDbScale
 70
     0
300
1:16
140
1.0
141
16.0
290
     0
  0
SCALE
  5
4F
102
{ACAD_REACTORS
330
47
102
}
330
47
100
AcDbScale
 70
     0
300
1:20
140
1.0
141
20.0
290
     0
  0
SCALE
  5
50
102
{ACAD_REACTORS
330
47
102
}
330
47
100
AcDbScale
 70
     0
300
1:30
140
1.0
141
30.0
290
     0
  0
SCALE
  5
51
102
{ACAD_REACTORS
330
47
102
}
330
47
100
AcDbScale
 70
     0
300
1:40
140
1.0
141
40.0
290
     0
  0
SCALE
  5
52
102
{ACAD_REACTORS
330
47
102
}
330
47
100
AcDbScale
 70
     0
300
1:50
140
1.0
141
50.0
290
     0
  0
SCALE
  5
53
102
{ACAD_REACTORS
330
47
102
}
330
47
100
AcDbScale
 70
     0
300
1:100
140
1.0
141
100.0
290
     0
  0
SCALE
  5
54
102
{ACAD_REACTORS
330
47
102
}
330
47
100
AcDbScale
 70
     0
300
2:1
140
2.0
141
1.0
290
     0
  0
SCALE
  5
55
102
{ACAD_REACTORS
330
47
102
}
330
47
100
AcDbScale
 70
     0
300
4:1
140
4.0
141
1.0
290
     0
  0
SCALE
  5
56
102
{ACAD_REACTORS
330
47
102
}
330
47
100
AcDbScale
 70
     0
300
8:1
140
8.0
141
1.0
290
     0
  0
SCALE
  5
57
102
{ACAD_REACTORS
330
47
102
}
330
47
100
AcDbScale
 70
     0
300
10:1
140
10.0
141
1.0
290
     0
  0
SCALE
  5
58
102
{ACAD_REACTORS
330
47
102
}
330
47
100
AcDbScale
 70
     0
300
100:1
140
100.0
141
1.0
290
     0
  0
TABLESTYLE
  5
5A
102
{ACAD_REACTORS
330
59
102
}
102
{ACAD_XDICTIONARY
360
232
102
}
330
59
100
AcDbTableStyle
  3
Standard
 70
     0
 71
     0
 40
0.06
 41
0.06
280
     0
281
     0
  7
Standard
140
4.5
170
     2
 62
     0
 63
   257
283
     0
 90
        4
 91
        0
  1

274
    -2
284
     1
 64
     0
275
    -2
285
     1
 65
     0
276
    -2
286
     1
 66
     0
277
    -2
287
     1
 67
     0
278
    -2
288
     1
 68
     0
279
    -2
289
     1
 69
     0
  7
Standard
140
6.0
170
     5
 62
     0
 63
   257
283
     0
 90
        4
 91
        0
  1

274
    -2
284
     1
 64
     0
275
    -2
285
     1
 65
     0
276
    -2
286
     1
 66
     0
277
    -2
287
     1
 67
     0
278
    -2
288
     1
 68
     0
279
    -2
289
     1
 69
     0
  7
Standard
140
4.5
170
     5
 62
     0
 63
   257
283
     0
 90
        4
 91
        0
  1

274
    -2
284
     1
 64
     0
275
    -2
285
     1
 65
     0
276
    -2
286
     1
 66
     0
277
    -2
287
     1
 67
     0
278
    -2
288
     1
 68
     0
279
    -2
289
     1
 69
     0
  0
VISUALSTYLE
  5
2F
102
{ACAD_REACTORS
330
2A
102
}
330
2A
100
AcDbVisualStyle
  2
2dWireframe
 70
     4
177
     3
291
     0
 70
    58
 90
        0
176
     1
 90
        2
176
     1
 90
        0
176
     1
 90
        0
176
     1
 40
0.6
176
     1
 40
30.0
176
     1
 62
     7
420
 16777215
176
     1
 90
        1
176
     1
 90
        4
176
     1
 62
     7
176
     1
 62
   257
176
     1
 90
        1
176
     1
 90
        1
176
     1
 40
1.0
176
     1
 90
        0
176
     1
 62
   257
176
     1
 40
1.0
176
     1
 90
        1
176
     1
 90
        6
176
     1
 90
        2
176
     1
 62
     7
176
     1
 90
        5
176
     1
 90
        0
176
     1
 90
        0
176
     1
290
     0
176
     1
 90
        1
176
     1
 40
0.0
176
     1
 90
        0
176
     1
290
     1
176
     1
290
     1
176
     1
290
     0
176
     1
290
     0
176
     1
290
     0
176
     1
290
     0
176
     1
290
     0
176
     1
290
     0
176
     1
290
     0
176
     1
 90
       50
176
     1
 40
0.0
176
     1
 40
1.0
176
     1
 90
        0
176
     1
 62
    18
420
        0
176
     1
 90
       50
176
     1
 90
        3
176
     1
 62
     5
420
      255
176
     1
290
     0
176
     1
 90
       50
176
     1
 90
       50
176
     1
 90
       50
176
     1
290
     0
176
     1
 90
       50
176
     1
 62
   256
176
     0
 40
1.0
176
     0
 90
        2
176
     1
  1
strokes_ogs.tif
176
     1
290
     0
176
     1
 40
1.0
176
     1
 40
1.0
176
     1
  0
VISUALSTYLE
  5
32
102
{ACAD_REACTORS
330
2A
102
}
330
2A
100
AcDbVisualStyle
  2
Basic
 70
     7
177
     3
291
     1
 70
    58
 90
        1
176
     1
 90
        0
176
     1
 90
        1
176
     1
 90
        0
176
     1
 40
0.6
176
     1
 40
30.0
176
     1
 62
     7
420
 16777215
176
     1
 90
        0
176
     1
 90
        4
176
     1
 62
     7
176
     1
 62
   257
176
     1
 90
        1
176
     1
 90
        1
176
     1
 40
1.0
176
     1
 90
        8
176
     1
 62
     7
176
     1
 40
1.0
176
     1
 90
        1
176
     1
 90
        6
176
     1
 90
        2
176
     1
 62
     7
176
     1
 90
        5
176
     1
 90
        0
176
     1
 90
        0
176
     1
290
     0
176
     1
 90
        1
176
     1
 40
0.0
176
     1
 90
        0
176
     1
290
     0
176
     1
290
     1
176
     1
290
     1
176
     1
290
     0
176
     1
290
     0
176
     1
290
     0
176
     1
290
     0
176
     1
290
     0
176
     1
290
     0
176
     1
 90
       50
176
     1
 40
0.0
176
     1
 40
1.0
176
     1
 90
        0
176
     1
 62
    18
420
        0
176
     1
 90
       50
176
     1
 90
        3
176
     1
 62
     5
420
      255
176
     1
290
     0
176
     1
 90
       50
176
     1
 90
       50
176
     1
 90
       50
176
     1
290
     0
176
     1
 90
       50
176
     1
 62
   256
176
     0
 40
1.0
176
     0
 90
        2
176
     1
  1
strokes_ogs.tif
176
     1
290
     0
176
     1
 40
1.0
176
     1
 40
1.0
176
     1
  0
VISUALSTYLE
  5
36
102
{ACAD_REACTORS
330
2A
102
}
330
2A
100
AcDbVisualStyle
  2
Brighten
 70
    12
177
     3
291
     1
 70
    58
 90
        2
176
     1
 90
        2
176
     1
 90
        0
176
     1
 90
        0
176
     1
 40
0.6
176
     1
 40
30.0
176
     1
 62
     7
420
 16777215
176
     1
 90
        1
176
     1
 90
        4
176
     1
 62
     7
176
     1
 62
   257
176
     1
 90
        1
176
     1
 90
        1
176
     1
 40
1.0
176
     1
 90
        8
176
     1
 62
     7
176
     1
 40
1.0
176
     1
 90
        1
176
     1
 90
        6
176
     1
 90
        2
176
     1
 62
     7
176
     1
 90
        5
176
     1
 90
        0
176
     1
 90
        0
176
     1
290
     0
176
     1
 90
        1
176
     1
 40
50.0
176
     1
 90
        0
176
     1
290
     0
176
     1
290
     1
176
     1
290
     1
176
     1
290
     0
176
     1
290
     0
176
     1
290
     0
176
     1
290
     0
176
     1
290
     0
176
     1
290
     0
176
     1
 90
       50
176
     1
 40
0.0
176
     1
 40
1.0
176
     1
 90
        0
176
     1
 62
    18
420
        0
176
     1
 90
       50
176
     1
 90
        3
176
     1
 62
     5
420
      255
176
     1
290
     0
176
     1
 90
       50
176
     1
 90
       50
176
     1
 90
       50
176
     1
290
     0
176
     1
 90
       50
176
     1
 62
   256
176
     0
 40
1.0
176
     0
 90
        2
176
     1
  1
strokes_ogs.tif
176
     1
290
     0
176
     1
 40
1.0
176
     1
 40
1.0
176
     1
  0
VISUALSTYLE
  5
3A
102
{ACAD_REACTORS
330
2A
102
}
330
2A
100
AcDbVisualStyle
  2
ColorChange
 70
    16
177
     3
291
     1
 70
    58
 90
        2
176
     1
 90
        2
176
     1
 90
        3
176
     1
 90
        0
176
     1
 40
0.6
176
     1
 40
30.0
176
     1
 62
     8
420
  8421504
176
     1
 90
        1
176
     1
 90
        4
176
     1
 62
     7
176
     1
 62
   257
176
     1
 90
        1
176
     1
 90
        1
176
     1
 40
1.0
176
     1
 90
        8
176
     1
 62
     8
420
  8421504
176
     1
 40
1.0
176
     1
 90
        1
176
     1
 90
        6
176
     1
 90
        2
176
     1
 62
     7
176
     1
 90
        5
176
     1
 90
        0
176
     1
 90
        0
176
     1
290
     0
176
     1
 90
        1
176
     1
 40
0.0
176
     1
 90
        0
176
     1
290
     0
176
     1
290
     1
176
     1
290
     1
176
     1
290
     0
176
     1
290
     0
176
     1
290
     0
176
     1
290
     0
176
     1
290
     0
176
     1
290
     0
176
     1
 90
       50
176
     1
 40
0.0
176
     1
 40
1.0
176
     1
 90
        0
176
     1
 62
    18
420
        0
176
     1
 90
       50
176
     1
 90
        3
176
     1
 62
     5
420
      255
176
     1
290
     0
176
     1
 90
       50
176
     1
 90
       50
176
     1
 90
       50
176
     1
290
     0
176
     1
 90
       50
176
     1
 62
   256
176
     0
 40
1.0
176
     0
 90
        2
176
     1
  1
strokes_ogs.tif
176
     1
290
     0
176
     1
 40
1.0
176
     1
 40
1.0
176
     1
  0
VISUALSTYLE
  5
34
102
{ACAD_REACTORS
330
2A
102
}
330
2A
100
AcDbVisualStyle
  2
Conceptual
 70
     9
177
     3
291
     0
 70
    58
 90
        3
176
     1
 90
        2
176
     1
 90
        0
176
     1
 90
        0
176
     1
 40
0.6
176
     1
 40
30.0
176
     1
 62
     7
420
 16777215
176
     1
 90
        2
176
     1
 90
        2
176
     1
 62
     7
176
     1
 62
   257
176
     1
 90
        1
176
     1
 90
        1
176
     1
 40
179.0
176
     1
 90
        8
176
     1
 62
     7
176
     1
 40
1.0
176
     1
 90
        1
176
     1
 90
        6
176
     1
 90
        2
176
     1
 62
     7
176
     1
 90
        3
176
     1
 90
        0
176
     1
 90
        0
176
     1
290
     0
176
     1
 90
        1
176
     1
 40
0.0
176
     1
 90
        0
176
     1
290
     0
176
     1
290
     1
176
     1
290
     1
176
     1
290
     0
176
     1
290
     0
176
     1
290
     0
176
     1
290
     0
176
     1
290
     0
176
     1
290
     0
176
     1
 90
       50
176
     1
 40
0.0
176
     1
 40
1.0
176
     1
 90
        0
176
     1
 62
    18
420
        0
176
     1
 90
       50
176
     1
 90
        3
176
     1
 62
     5
420
      255
176
     1
290
     0
176
     1
 90
       50
176
     1
 90
       50
176
     1
 90
       50
176
     1
290
     0
176
     1
 90
       50
176
     1
 62
   256
176
     0
 40
1.0
176
     0
 90
        2
176
     1
  1
strokes_ogs.tif
176
     1
290
     0
176
     1
 40
1.0
176
     1
 40
1.0
176
     1
  0
VISUALSTYLE
  5
35
102
{ACAD_REACTORS
330
2A
102
}
330
2A
100
AcDbVisualStyle
  2
Dim
 70
    11
177
     3
291
     1
 70
    58
 90
        2
176
     1
 90
        2
176
     1
 90
        0
176
     1
 90
        0
176
     1
 40
0.6
176
     1
 40
30.0
176
     1
 62
     7
420
 16777215
176
     1
 90
        1
176
     1
 90
        4
176
     1
 62
     7
176
     1
 62
   257
176
     1
 90
        1
176
     1
 90
        1
176
     1
 40
1.0
176
     1
 90
        8
176
     1
 62
     7
176
     1
 40
1.0
176
     1
 90
        1
176
     1
 90
        6
176
     1
 90
        2
176
     1
 62
     7
176
     1
 90
        5
176
     1
 90
        0
176
     1
 90
        0
176
     1
290
     0
176
     1
 90
        1
176
     1
 40
-50.0
176
     1
 90
        0
176
     1
290
     0
176
     1
290
     1
176
     1
290
     1
176
     1
290
     0
176
     1
290
     0
176
     1
290
     0
176
     1
290
     0
176
     1
290
     0
176
     1
290
     0
176
     1
 90
       50
176
     1
 40
0.0
176
     1
 40
1.0
176
     1
 90
        0
176
     1
 62
    18
420
        0
176
     1
 90
       50
176
     1
 90
        3
176
     1
 62
     5
420
      255
176
     1
290
     0
176
     1
 90
       50
176
     1
 90
       50
176
     1
 90
       50
176
     1
290
     0
176
     1
 90
       50
176
     1
 62
   256
176
     0
 40
1.0
176
     0
 90
        2
176
     1
  1
strokes_ogs.tif
176
     1
290
     0
176
     1
 40
1.0
176
     1
 40
1.0
176
     1
  0
VISUALSTYLE
  5
3D
102
{ACAD_REACTORS
330
2A
102
}
330
2A
100
AcDbVisualStyle
  2
EdgeColorOff
 70
    22
177
     3
291
     1
 70
    58
 90
        2
176
     0
 90
        2
176
     0
 90
        0
176
     0
 90
        0
176
     0
 40
0.6
176
     0
 40
30.0
176
     0
 62
     7
420
 16777215
176
     0
 90
        1
176
     0
 90
        4
176
     0
 62
     7
176
     0
 62
   257
176
     0
 90
        1
176
     0
 90
        1
176
     0
 40
1.0
176
     0
 90
        8
176
     2
 62
     7
176
     0
 40
1.0
176
     0
 90
        1
176
     0
 90
        6
176
     0
 90
        2
176
     0
 62
     7
176
     0
 90
        5
176
     0
 90
        0
176
     0
 90
        0
176
     0
290
     0
176
     0
 90
        1
176
     0
 40
0.0
176
     0
 90
        0
176
     0
290
     0
176
     0
290
     1
176
     0
290
     1
176
     0
290
     0
176
     0
290
     0
176
     0
290
     0
176
     0
290
     0
176
     0
290
     0
176
     0
290
     0
176
     0
 90
       50
176
     0
 40
0.0
176
     0
 40
1.0
176
     0
 90
        0
176
     0
 62
    18
420
        0
176
     0
 90
       50
176
     0
 90
        3
176
     0
 62
     5
420
      255
176
     0
290
     0
176
     0
 90
       50
176
     0
 90
       50
176
     0
 90
       50
176
     0
290
     0
176
     0
 90
       50
176
     0
 62
   256
176
     0
 40
1.0
176
     0
 90
        2
176
     0
  1
strokes_ogs.tif
176
     0
290
     0
176
     0
 40
1.0
176
     0
 40
1.0
176
     0
  0
VISUALSTYLE
  5
39
102
{ACAD_REACTORS
330
2A
102
}
330
2A
100
AcDbVisualStyle
  2
Facepattern
 70
    15
177
     3
291
     1
 70
    58
 90
        2
176
     1
 90
        2
176
     1
 90
        0
176
     1
 90
        0
176
     1
 40
0.6
176
     1
 40
30.0
176
     1
 62
     7
420
 16777215
176
     1
 90
        1
176
     1
 90
        4
176
     1
 62
     7
176
     1
 62
   257
176
     1
 90
        1
176
     1
 90
        1
176
     1
 40
1.0
176
     1
 90
        8
176
     1
 62
     7
176
     1
 40
1.0
176
     1
 90
        1
176
     1
 90
        6
176
     1
 90
        2
176
     1
 62
     7
176
     1
 90
        5
176
     1
 90
        0
176
     1
 90
        0
176
     1
290
     0
176
     1
 90
        1
176
     1
 40
0.0
176
     1
 90
        0
176
     1
290
     0
176
     1
290
     1
176
     1
290
     1
176
     1
290
     0
176
     1
290
     0
176
     1
290
     0
176
     1
290
     0
176
     1
290
     0
176
     1
290
     0
176
     1
 90
       50
176
     1
 40
0.0
176
     1
 40
1.0
176
     1
 90
        0
176
     1
 62
    18
420
        0
176
     1
 90
       50
176
     1
 90
        3
176
     1
 62
     5
420
      255
176
     1
290
     0
176
     1
 90
       50
176
     1
 90
       50
176
     1
 90
       50
176
     1
290
     0
176
     1
 90
       50
176
     1
 62
   256
176
     0
 40
1.0
176
     0
 90
        2
176
     1
  1
strokes_ogs.tif
176
     1
290
     0
176
     1
 40
1.0
176
     1
 40
1.0
176
     1
  0
VISUALSTYLE
  5
2B
102
{ACAD_REACTORS
330
2A
102
}
330
2A
100
AcDbVisualStyle
  2
Flat
 70
     0
177
     3
291
     1
 70
    58
 90
        2
176
     1
 90
        1
176
     1
 90
        1
176
     1
 90
        2
176
     1
 40
0.6
176
     1
 40
30.0
176
     1
 62
     7
420
 16777215
176
     1
 90
        0
176
     1
 90
        0
176
     1
 62
     7
176
     1
 62
   257
176
     1
 90
        1
176
     1
 90
        1
176
     1
 40
1.0
176
     1
 90
        8
176
     1
 62
     7
176
     1
 40
1.0
176
     1
 90
        1
176
     1
 90
        6
176
     1
 90
        2
176
     1
 62
     7
176
     1
 90
        5
176
     1
 90
        0
176
     1
 90
        0
176
     1
290
     0
176
     1
 90
       13
176
     1
 40
0.0
176
     1
 90
        0
176
     1
290
     0
176
     1
290
     1
176
     1
290
     1
176
     1
290
     0
176
     1
290
     0
176
     1
290
     0
176
     1
290
     0
176
     1
290
     0
176
     1
290
     0
176
     1
 90
       50
176
     1
 40
0.0
176
     1
 40
1.0
176
     1
 90
        0
176
     1
 62
    18
420
        0
176
     1
 90
       50
176
     1
 90
        3
176
     1
 62
     5
420
      255
176
     1
290
     0
176
     1
 90
       50
176
     1
 90
       50
176
     1
 90
       50
176
     1
290
     0
176
     1
 90
       50
176
     1
 62
   256
176
     0
 40
1.0
176
     0
 90
        2
176
     1
  1
strokes_ogs.tif
176
     1
290
     0
176
     1
 40
1.0
176
     1
 40
1.0
176
     1
  0
VISUALSTYLE
  5
2C
102
{ACAD_REACTORS
330
2A
102
}
330
2A
100
AcDbVisualStyle
  2
FlatWithEdges
 70
     1
177
     3
291
     1
 70
    58
 90
        2
176
     1
 90
        1
176
     1
 90
        1
176
     1
 90
        2
176
     1
 40
0.6
176
     1
 40
30.0
176
     1
 62
     7
420
 16777215
176
     1
 90
        1
176
     1
 90
        0
176
     1
 62
     7
176
     1
 62
   257
176
     1
 90
        1
176
     1
 90
        1
176
     1
 40
1.0
176
     1
 90
        0
176
     1
 62
   257
176
     1
 40
1.0
176
     1
 90
        1
176
     1
 90
        6
176
     1
 90
        2
176
     1
 62
     7
176
     1
 90
        5
176
     1
 90
        0
176
     1
 90
        0
176
     1
290
     0
176
     1
 90
       13
176
     1
 40
0.0
176
     1
 90
        0
176
     1
290
     0
176
     1
290
     1
176
     1
290
     1
176
     1
290
     0
176
     1
290
     0
176
     1
290
     0
176
     1
290
     0
176
     1
290
     0
176
     1
290
     0
176
     1
 90
       50
176
     1
 40
0.0
176
     1
 40
1.0
176
     1
 90
        0
176
     1
 62
    18
420
        0
176
     1
 90
       50
176
     1
 90
        3
176
     1
 62
     5
420
      255
176
     1
290
     0
176
     1
 90
       50
176
     1
 90
       50
176
     1
 90
       50
176
     1
290
     0
176
     1
 90
       50
176
     1
 62
   256
176
     0
 40
1.0
176
     0
 90
        2
176
     1
  1
strokes_ogs.tif
176
     1
290
     0
176
     1
 40
1.0
176
     1
 40
1.0
176
     1
  0
VISUALSTYLE
  5
2D
102
{ACAD_REACTORS
330
2A
102
}
330
2A
100
AcDbVisualStyle
  2
Gouraud
 70
     2
177
     3
291
     1
 70
    58
 90
        2
176
     1
 90
        2
176
     1
 90
        1
176
     1
 90
        2
176
     1
 40
0.6
176
     1
 40
30.0
176
     1
 62
     7
420
 16777215
176
     1
 90
        0
176
     1
 90
        0
176
     1
 62
     7
176
     1
 62
   257
176
     1
 90
        1
176
     1
 90
        1
176
     1
 40
1.0
176
     1
 90
        0
176
     1
 62
     7
176
     1
 40
1.0
176
     1
 90
        1
176
     1
 90
        6
176
     1
 90
        2
176
     1
 62
     7
176
     1
 90
        5
176
     1
 90
        0
176
     1
 90
        0
176
     1
290
     0
176
     1
 90
       13
176
     1
 40
0.0
176
     1
 90
        0
176
     1
290
     0
176
     1
290
     1
176
     1
290
     1
176
     1
290
     0
176
     1
290
     0
176
     1
290
     0
176
     1
290
     0
176
     1
290
     0
176
     1
290
     0
176
     1
 90
       50
176
     1
 40
0.0
176
     1
 40
1.0
176
     1
 90
        0
176
     1
 62
    18
420
        0
176
     1
 90
       50
176
     1
 90
        3
176
     1
 62
     5
420
      255
176
     1
290
     0
176
     1
 90
       50
176
     1
 90
       50
176
     1
 90
       50
176
     1
290
     0
176
     1
 90
       50
176
     1
 62
   256
176
     0
 40
1.0
176
     0
 90
        2
176
     1
  1
strokes_ogs.tif
176
     1
290
     0
176
     1
 40
1.0
176
     1
 40
1.0
176
     1
  0
VISUALSTYLE
  5
2E
102
{ACAD_REACTORS
330
2A
102
}
330
2A
100
AcDbVisualStyle
  2
GouraudWithEdges
 70
     3
177
     3
291
     1
 70
    58
 90
        2
176
     1
 90
        2
176
     1
 90
        1
176
     1
 90
        2
176
     1
 40
0.6
176
     1
 40
30.0
176
     1
 62
     7
420
 16777215
176
     1
 90
        1
176
     1
 90
        0
176
     1
 62
     7
176
     1
 62
   257
176
     1
 90
        1
176
     1
 90
        1
176
     1
 40
1.0
176
     1
 90
        0
176
     1
 62
   257
176
     1
 40
1.0
176
     1
 90
        1
176
     1
 90
        6
176
     1
 90
        2
176
     1
 62
     7
176
     1
 90
        5
176
     1
 90
        0
176
     1
 90
        0
176
     1
290
     0
176
     1
 90
       13
176
     1
 40
0.0
176
     1
 90
        0
176
     1
290
     0
176
     1
290
     1
176
     1
290
     1
176
     1
290
     0
176
     1
290
     0
176
     1
290
     0
176
     1
290
     0
176
     1
290
     0
176
     1
290
     0
176
     1
 90
       50
176
     1
 40
0.0
176
     1
 40
1.0
176
     1
 90
        0
176
     1
 62
    18
420
        0
176
     1
 90
       50
176
     1
 90
        3
176
     1
 62
     5
420
      255
176
     1
290
     0
176
     1
 90
       50
176
     1
 90
       50
176
     1
 90
       50
176
     1
290
     0
176
     1
 90
       50
176
     1
 62
   256
176
     0
 40
1.0
176
     0
 90
        2
176
     1
  1
strokes_ogs.tif
176
     1
290
     0
176
     1
 40
1.0
176
     1
 40
1.0
176
     1
  0
VISUALSTYLE
  5
31
102
{ACAD_REACTORS
330
2A
102
}
330
2A
100
AcDbVisualStyle
  2
Hidden
 70
     6
177
     3
291
     0
 70
    58
 90
        1
176
     1
 90
        2
176
     1
 90
        2
176
     1
 90
        0
176
     1
 40
0.6
176
     1
 40
30.0
176
     1
 62
     7
420
 16777215
176
     1
 90
        2
176
     1
 90
        2
176
     1
 62
     7
176
     1
 62
   257
176
     1
 90
        2
176
     1
 90
        1
176
     1
 40
40.0
176
     1
 90
        0
176
     1
 62
   257
176
     1
 40
1.0
176
     1
 90
        1
176
     1
 90
        6
176
     1
 90
        2
176
     1
 62
     7
176
     1
 90
        3
176
     1
 90
        0
176
     1
 90
        0
176
     1
290
     0
176
     1
 90
        1
176
     1
 40
0.0
176
     1
 90
        0
176
     1
290
     0
176
     1
290
     1
176
     1
290
     1
176
     1
290
     0
176
     1
290
     0
176
     1
290
     0
176
     1
290
     0
176
     1
290
     0
176
     1
290
     0
176
     1
 90
       50
176
     1
 40
0.0
176
     1
 40
1.0
176
     1
 90
        0
176
     1
 62
    18
420
        0
176
     1
 90
       50
176
     1
 90
        3
176
     1
 62
     5
420
      255
176
     1
290
     0
176
     1
 90
       50
176
     1
 90
       50
176
     1
 90
       50
176
     1
290
     0
176
     1
 90
       50
176
     1
 62
   256
176
     0
 40
1.0
176
     0
 90
        2
176
     1
  1
strokes_ogs.tif
176
     1
290
     0
176
     1
 40
1.0
176
     1
 40
1.0
176
     1
  0
VISUALSTYLE
  5
3B
102
{ACAD_REACTORS
330
2A
102
}
330
2A
100
AcDbVisualStyle
  2
JitterOff
 70
    20
177
     3
291
     1
 70
    58
 90
        2
176
     0
 90
        2
176
     0
 90
        0
176
     0
 90
        0
176
     0
 40
0.6
176
     0
 40
30.0
176
     0
 62
     7
420
 16777215
176
     0
 90
        1
176
     0
 90
        4
176
     0
 62
     7
176
     0
 62
   257
176
     0
 90
        1
176
     0
 90
        1
176
     0
 40
1.0
176
     0
 90
       10
176
     2
 62
     7
176
     0
 40
1.0
176
     0
 90
        1
176
     0
 90
        6
176
     0
 90
        2
176
     0
 62
     7
176
     0
 90
        5
176
     0
 90
        0
176
     0
 90
        0
176
     0
290
     0
176
     0
 90
        1
176
     0
 40
0.0
176
     0
 90
        0
176
     0
290
     0
176
     0
290
     1
176
     0
290
     1
176
     0
290
     0
176
     0
290
     0
176
     0
290
     0
176
     0
290
     0
176
     0
290
     0
176
     0
290
     0
176
     0
 90
       50
176
     0
 40
0.0
176
     0
 40
1.0
176
     0
 90
        0
176
     0
 62
    18
420
        0
176
     0
 90
       50
176
     0
 90
        3
176
     0
 62
     5
420
      255
176
     0
290
     0
176
     0
 90
       50
176
     0
 90
       50
176
     0
 90
       50
176
     0
290
     0
176
     0
 90
       50
176
     0
 62
   256
176
     0
 40
1.0
176
     0
 90
        2
176
     0
  1
strokes_ogs.tif
176
     0
290
     0
176
     0
 40
1.0
176
     0
 40
1.0
176
     0
  0
VISUALSTYLE
  5
38
102
{ACAD_REACTORS
330
2A
102
}
330
2A
100
AcDbVisualStyle
  2
Linepattern
 70
    14
177
     3
291
     1
 70
    58
 90
        2
176
     1
 90
        2
176
     1
 90
        0
176
     1
 90
        0
176
     1
 40
0.6
176
     1
 40
30.0
176
     1
 62
     7
420
 16777215
176
     1
 90
        1
176
     1
 90
        4
176
     1
 62
     7
176
     1
 62
   257
176
     1
 90
        7
176
     1
 90
        7
176
     1
 40
1.0
176
     1
 90
        8
176
     1
 62
     7
176
     1
 40
1.0
176
     1
 90
        1
176
     1
 90
        6
176
     1
 90
        2
176
     1
 62
     7
176
     1
 90
        5
176
     1
 90
        0
176
     1
 90
        0
176
     1
290
     0
176
     1
 90
        1
176
     1
 40
0.0
176
     1
 90
        0
176
     1
290
     0
176
     1
290
     1
176
     1
290
     1
176
     1
290
     0
176
     1
290
     0
176
     1
290
     0
176
     1
290
     0
176
     1
290
     0
176
     1
290
     0
176
     1
 90
       50
176
     1
 40
0.0
176
     1
 40
1.0
176
     1
 90
        0
176
     1
 62
    18
420
        0
176
     1
 90
       50
176
     1
 90
        3
176
     1
 62
     5
420
      255
176
     1
290
     0
176
     1
 90
       50
176
     1
 90
       50
176
     1
 90
       50
176
     1
290
     0
176
     1
 90
       50
176
     1
 62
   256
176
     0
 40
1.0
176
     0
 90
        2
176
     1
  1
strokes_ogs.tif
176
     1
290
     0
176
     1
 40
1.0
176
     1
 40
1.0
176
     1
  0
VISUALSTYLE
  5
3C
102
{ACAD_REACTORS
330
2A
102
}
330
2A
100
AcDbVisualStyle
  2
OverhangOff
 70
    21
177
     3
291
     1
 70
    58
 90
        2
176
     0
 90
        2
176
     0
 90
        0
176
     0
 90
        0
176
     0
 40
0.6
176
     0
 40
30.0
176
     0
 62
     7
420
 16777215
176
     0
 90
        1
176
     0
 90
        4
176
     0
 62
     7
176
     0
 62
   257
176
     0
 90
        1
176
     0
 90
        1
176
     0
 40
1.0
176
     0
 90
        9
176
     2
 62
     7
176
     0
 40
1.0
176
     0
 90
        1
176
     0
 90
        6
176
     0
 90
        2
176
     0
 62
     7
176
     0
 90
        5
176
     0
 90
        0
176
     0
 90
        0
176
     0
290
     0
176
     0
 90
        1
176
     0
 40
0.0
176
     0
 90
        0
176
     0
290
     0
176
     0
290
     1
176
     0
290
     1
176
     0
290
     0
176
     0
290
     0
176
     0
290
     0
176
     0
290
     0
176
     0
290
     0
176
     0
290
     0
176
     0
 90
       50
176
     0
 40
0.0
176
     0
 40
1.0
176
     0
 90
        0
176
     0
 62
    18
420
        0
176
     0
 90
       50
176
     0
 90
        3
176
     0
 62
     5
420
      255
176
     0
290
     0
176
     0
 90
       50
176
     0
 90
       50
176
     0
 90
       50
176
     0
290
     0
176
     0
 90
       50
176
     0
 62
   256
176
     0
 40
1.0
176
     0
 90
        2
176
     0
  1
strokes_ogs.tif
176
     0
290
     0
176
     0
 40
1.0
176
     0
 40
1.0
176
     0
  0
VISUALSTYLE
  5
33
102
{ACAD_REACTORS
330
2A
102
}
330
2A
100
AcDbVisualStyle
  2
Realistic
 70
     8
177
     3
291
     0
 70
    58
 90
        2
176
     1
 90
        3
176
     1
 90
        0
176
     1
 90
        2
176
     1
 40
0.6
176
     1
 40
30.0
176
     1
 62
     7
420
 16777215
176
     1
 90
        0
176
     1
 90
        0
176
     1
 62
     7
176
     1
 62
   257
176
     1
 90
        1
176
     1
 90
        1
176
     1
 40
1.0
176
     1
 90
        8
176
     1
 62
   257
176
     1
 40
1.0
176
     1
 90
        1
176
     1
 90
        6
176
     1
 90
        2
176
     1
 62
     7
176
     1
 90
        3
176
     1
 90
        0
176
     1
 90
        0
176
     1
290
     0
176
     1
 90
       13
176
     1
 40
0.0
176
     1
 90
        0
176
     1
290
     0
176
     1
290
     1
176
     1
290
     1
176
     1
290
     0
176
     1
290
     0
176
     1
290
     0
176
     1
290
     0
176
     1
290
     0
176
     1
290
     0
176
     1
 90
       50
176
     1
 40
0.0
176
     1
 40
1.0
176
     1
 90
        0
176
     1
 62
    18
420
        0
176
     1
 90
       50
176
     1
 90
        3
176
     1
 62
     5
420
      255
176
     1
290
     0
176
     1
 90
       50
176
     1
 90
       50
176
     1
 90
       50
176
     1
290
     0
176
     1
 90
       50
176
     1
 62
   256
176
     0
 40
1.0
176
     0
 90
        2
176
     1
  1
strokes_ogs.tif
176
     1
290
     0
176
     1
 40
1.0
176
     1
 40
1.0
176
     1
  0
VISUALSTYLE
  5
42
102
{ACAD_REACTORS
330
2A
102
}
330
2A
100
AcDbVisualStyle
  2
Shaded
 70
    27
177
     3
291
     0
 70
    58
 90
        2
176
     1
 90
        2
176
     1
 90
        1
176
     1
 90
        2
176
     1
 40
0.6
176
     1
 40
30.0
176
     1
 62
     7
420
 16777215
176
     1
 90
        0
176
     1
 90
        4
176
     1
 62
     7
176
     1
 62
   257
176
     1
 90
        1
176
     1
 90
        1
176
     1
 40
1.0
176
     1
 90
        8
176
     1
 62
   257
176
     1
 40
1.0
176
     1
 90
        1
176
     1
 90
        6
176
     1
 90
        2
176
     1
 62
     8
420
  7895160
176
     1
 90
        3
176
     1
 90
        0
176
     1
 90
        0
176
     1
290
     0
176
     1
 90
        5
176
     1
 40
0.0
176
     1
 90
        0
176
     1
290
     0
176
     1
290
     1
176
     1
290
     1
176
     1
290
     0
176
     1
290
     0
176
     1
290
     0
176
     1
290
     0
176
     1
290
     0
176
     1
290
     0
176
     1
 90
       50
176
     1
 40
0.0
176
     1
 40
1.0
176
     1
 90
        0
176
     1
 62
    18
420
        0
176
     1
 90
       50
176
     1
 90
        3
176
     1
 62
     5
420
      255
176
     1
290
     0
176
     1
 90
       50
176
     1
 90
       50
176
     1
 90
       50
176
     1
290
     0
176
     1
 90
       50
176
     1
 62
   256
176
     0
 40
1.0
176
     0
 90
        2
176
     1
  1
strokes_ogs.tif
176
     1
290
     0
176
     1
 40
1.0
176
     1
 40
1.0
176
     1
  0
VISUALSTYLE
  5
41
102
{ACAD_REACTORS
330
2A
102
}
330
2A
100
AcDbVisualStyle
  2
Shaded with edges
 70
    26
177
     3
291
     0
 70
    58
 90
        2
176
     1
 90
        2
176
     1
 90
        1
176
     1
 90
        2
176
     1
 40
0.6
176
     1
 40
30.0
176
     1
 62
     7
420
 16777215
176
     1
 90
        1
176
     1
 90
       10
176
     1
 62
     7
176
     1
 62
   257
176
     1
 90
        2
176
     1
 90
        1
176
     1
 40
1.0
176
     1
 90
        8
176
     1
 62
   257
176
     1
 40
1.0
176
     1
 90
        1
176
     1
 90
        6
176
     1
 90
        2
176
     1
 62
     7
176
     1
 90
        3
176
     1
 90
        0
176
     1
 90
        0
176
     1
290
     0
176
     1
 90
        5
176
     1
 40
0.0
176
     1
 90
        0
176
     1
290
     0
176
     1
290
     1
176
     1
290
     1
176
     1
290
     0
176
     1
290
     0
176
     1
290
     0
176
     1
290
     0
176
     1
290
     0
176
     1
290
     0
176
     1
 90
       50
176
     1
 40
0.0
176
     1
 40
1.0
176
     1
 90
        0
176
     1
 62
    18
420
        0
176
     1
 90
       50
176
     1
 90
        3
176
     1
 62
     5
420
      255
176
     1
290
     0
176
     1
 90
       50
176
     1
 90
       50
176
     1
 90
       50
176
     1
290
     0
176
     1
 90
       50
176
     1
 62
   256
176
     0
 40
1.0
176
     0
 90
        2
176
     1
  1
strokes_ogs.tif
176
     1
290
     0
176
     1
 40
1.0
176
     1
 40
1.0
176
     1
  0
VISUALSTYLE
  5
3E
102
{ACAD_REACTORS
330
2A
102
}
330
2A
100
AcDbVisualStyle
  2
Shades of Gray
 70
    23
177
     3
291
     0
 70
    58
 90
        2
176
     1
 90
        2
176
     1
 90
        3
176
     1
 90
        0
176
     1
 40
0.6
176
     1
 40
30.0
176
     1
 62
     7
420
 16777215
176
     1
 90
        2
176
     1
 90
        2
176
     1
 62
     7
176
     1
 62
     7
176
     1
 90
        1
176
     1
 90
        1
176
     1
 40
40.0
176
     1
 90
        8
176
     1
 62
     7
176
     1
 40
1.0
176
     1
 90
        1
176
     1
 90
        6
176
     1
 90
        2
176
     1
 62
     7
176
     1
 90
        3
176
     1
 90
        0
176
     1
 90
        0
176
     1
290
     0
176
     1
 90
        1
176
     1
 40
0.0
176
     1
 90
        0
176
     1
290
     0
176
     1
290
     1
176
     1
290
     1
176
     1
290
     0
176
     1
290
     0
176
     1
290
     0
176
     1
290
     0
176
     1
290
     0
176
     1
290
     0
176
     1
 90
       50
176
     1
 40
0.0
176
     1
 40
1.0
176
     1
 90
        0
176
     1
 62
    18
420
        0
176
     1
 90
       50
176
     1
 90
        3
176
     1
 62
     5
420
      255
176
     1
290
     0
176
     1
 90
       50
176
     1
 90
       50
176
     1
 90
       50
176
     1
290
     0
176
     1
 90
       50
176
     1
 62
   256
176
     0
 40
1.0
176
     0
 90
        2
176
     1
  1
strokes_ogs.tif
176
     1
290
     0
176
     1
 40
1.0
176
     1
 40
1.0
176
     1
  0
VISUALSTYLE
  5
3F
102
{ACAD_REACTORS
330
2A
102
}
330
2A
100
AcDbVisualStyle
  2
Sketchy
 70
    24
177
     3
291
     0
 70
    58
 90
        1
176
     1
 90
        2
176
     1
 90
        2
176
     1
 90
        0
176
     1
 40
0.6
176
     1
 40
30.0
176
     1
 62
     7
420
 16777215
176
     1
 90
        2
176
     1
 90
        2
176
     1
 62
     7
176
     1
 62
     7
176
     1
 90
        1
176
     1
 90
        1
176
     1
 40
40.0
176
     1
 90
       11
176
     1
 62
     7
176
     1
 40
1.0
176
     1
 90
        1
176
     1
 90
        6
176
     1
 90
        2
176
     1
 62
     7
176
     1
 90
        6
176
     1
 90
        0
176
     1
 90
        0
176
     1
290
     0
176
     1
 90
        1
176
     1
 40
0.0
176
     1
 90
        0
176
     1
290
     0
176
     1
290
     1
176
     1
290
     1
176
     1
290
     0
176
     1
290
     0
176
     1
290
     0
176
     1
290
     0
176
     1
290
     0
176
     1
290
     0
176
     1
 90
       50
176
     1
 40
0.0
176
     1
 40
1.0
176
     1
 90
        0
176
     1
 62
    18
420
        0
176
     1
 90
       50
176
     1
 90
        3
176
     1
 62
     5
420
      255
176
     1
290
     0
176
     1
 90
       50
176
     1
 90
       50
176
     1
 90
       50
176
     1
290
     0
176
     1
 90
       50
176
     1
 62
   256
176
     0
 40
1.0
176
     0
 90
        2
176
     1
  1
strokes_ogs.tif
176
     1
290
     0
176
     1
 40
1.0
176
     1
 40
1.0
176
     1
  0
VISUALSTYLE
  5
37
102
{ACAD_REACTORS
330
2A
102
}
330
2A
100
AcDbVisualStyle
  2
Thicken
 70
    13
177
     3
291
     1
 70
    58
 90
        2
176
     1
 90
        2
176
     1
 90
        0
176
     1
 90
        0
176
     1
 40
0.6
176
     1
 40
30.0
176
     1
 62
     7
420
 16777215
176
     1
 90
        1
176
     1
 90
        4
176
     1
 62
     7
176
     1
 62
   257
176
     1
 90
        1
176
     1
 90
        1
176
     1
 40
1.0
176
     1
 90
       12
176
     1
 62
     7
176
     1
 40
1.0
176
     1
 90
        1
176
     1
 90
        6
176
     1
 90
        2
176
     1
 62
     7
176
     1
 90
        5
176
     1
 90
        0
176
     1
 90
        0
176
     1
290
     0
176
     1
 90
        1
176
     1
 40
0.0
176
     1
 90
        0
176
     1
290
     0
176
     1
290
     1
176
     1
290
     1
176
     1
290
     0
176
     1
290
     0
176
     1
290
     0
176
     1
290
     0
176
     1
290
     0
176
     1
290
     0
176
     1
 90
       50
176
     1
 40
0.0
176
     1
 40
1.0
176
     1
 90
        0
176
     1
 62
    18
420
        0
176
     1
 90
       50
176
     1
 90
        3
176
     1
 62
     5
420
      255
176
     1
290
     0
176
     1
 90
       50
176
     1
 90
       50
176
     1
 90
       50
176
     1
290
     0
176
     1
 90
       50
176
     1
 62
   256
176
     0
 40
1.0
176
     0
 90
        2
176
     1
  1
strokes_ogs.tif
176
     1
290
     0
176
     1
 40
1.0
176
     1
 40
1.0
176
     1
  0
VISUALSTYLE
  5
30
102
{ACAD_REACTORS
330
2A
102
}
330
2A
100
AcDbVisualStyle
  2
Wireframe
 70
     5
177
     3
291
     0
 70
    58
 90
        0
176
     1
 90
        2
176
     1
 90
        0
176
     1
 90
        0
176
     1
 40
0.6
176
     1
 40
30.0
176
     1
 62
     7
420
 16777215
176
     1
 90
        1
176
     1
 90
        4
176
     1
 62
     7
176
     1
 62
   257
176
     1
 90
        1
176
     1
 90
        1
176
     1
 40
1.0
176
     1
 90
        0
176
     1
 62
   257
176
     1
 40
1.0
176
     1
 90
        1
176
     1
 90
        6
176
     1
 90
        2
176
     1
 62
     7
176
     1
 90
        3
176
     1
 90
        0
176
     1
 90
        0
176
     1
290
     0
176
     1
 90
        1
176
     1
 40
0.0
176
     1
 90
        0
176
     1
290
     0
176
     1
290
     1
176
     1
290
     1
176
     1
290
     0
176
     1
290
     0
176
     1
290
     0
176
     1
290
     0
176
     1
290
     0
176
     1
290
     0
176
     1
 90
       50
176
     1
 40
0.0
176
     1
 40
1.0
176
     1
 90
        0
176
     1
 62
    18
420
        0
176
     1
 90
       50
176
     1
 90
        3
176
     1
 62
     5
420
      255
176
     1
290
     0
176
     1
 90
       50
176
     1
 90
       50
176
     1
 90
       50
176
     1
290
     0
176
     1
 90
       50
176
     1
 62
   256
176
     0
 40
1.0
176
     0
 90
        2
176
     1
  1
strokes_ogs.tif
176
     1
290
     0
176
     1
 40
1.0
176
     1
 40
1.0
176
     1
  0
VISUALSTYLE
  5
40
102
{ACAD_REACTORS
330
2A
102
}
330
2A
100
AcDbVisualStyle
  2
X-Ray
 70
    25
177
     3
291
     0
 70
    58
 90
        2
176
     1
 90
        2
176
     1
 90
        1
176
     1
 90
        1
176
     1
 40
0.5
176
     1
 40
30.0
176
     1
 62
     7
420
 16777215
176
     1
 90
        1
176
     1
 90
        0
176
     1
 62
     7
176
     1
 62
   257
176
     1
 90
        1
176
     1
 90
        1
176
     1
 40
1.0
176
     1
 90
        8
176
     1
 62
     7
176
     1
 40
1.0
176
     1
 90
        1
176
     1
 90
        6
176
     1
 90
        2
176
     1
 62
     7
176
     1
 90
        3
176
     1
 90
        0
176
     1
 90
        0
176
     1
290
     0
176
     1
 90
       13
176
     1
 40
0.0
176
     1
 90
        0
176
     1
290
     0
176
     1
290
     1
176
     1
290
     1
176
     1
290
     0
176
     1
290
     0
176
     1
290
     0
176
     1
290
     0
176
     1
290
     0
176
     1
290
     0
176
     1
 90
       50
176
     1
 40
0.0
176
     1
 40
1.0
176
     1
 90
        0
176
     1
 62
    18
420
        0
176
     1
 90
       50
176
     1
 90
        3
176
     1
 62
     5
420
      255
176
     1
290
     0
176
     1
 90
       50
176
     1
 90
       50
176
     1
 90
       50
176
     1
290
     0
176
     1
 90
       50
176
     1
 62
   256
176
     0
 40
1.0
176
     0
 90
        2
176
     1
  1
strokes_ogs.tif
176
     1
290
     0
176
     1
 40
1.0
176
     1
 40
1.0
176
     1
  0
DICTIONARYVAR
  5
231
102
{ACAD_REACTORS
330
230
102
}
330
230
100
DictionaryVariables
280
     0
  1
1:1
  0
DICTIONARYVAR
  5
239
102
{ACAD_REACTORS
330
230
102
}
330
230
100
DictionaryVariables
280
     0
  1
3.500000
  0
DICTIONARYVAR
  5
23A
102
{ACAD_REACTORS
330
230
102
}
330
230
100
DictionaryVariables
280
     0
  1
acadiso.lin
  0
DICTIONARYVAR
  5
236
102
{ACAD_REACTORS
330
230
102
}
330
230
100
DictionaryVariables
280
     0
  1
Standard
  0
DICTIONARYVAR
  5
235
102
{ACAD_REACTORS
330
230
102
}
330
230
100
DictionaryVariables
280
     0
  1
Standard
  0
DICTIONARY
  5
232
330
5A
100
AcDbDictionary
280
     1
281
     1
  3
ACAD_ROUNDTRIP_2008_TABLESTYLE_CELLSTYLEMAP
360
233
  0
CELLSTYLEMAP
  5
233
102
{ACAD_REACTORS
330
232
102
}
330
232
100
AcDbCellStyleMap
 90
        3
300
CELLSTYLE
  1
TABLEFORMAT_BEGIN
 90
        5
170
     1
 91
        0
 92
    32768
 62
   257
 93
        1
300
CONTENTFORMAT
  1
CONTENTFORMAT_BEGIN
 90
        0
 91
        0
 92
        4
 93
        0
300

 40
0.0
140
1.0
 94
        5
 62
     0
340
11
144
6.0
309
CONTENTFORMAT_END
171
     1
301
MARGIN
  1
CELLMARGIN_BEGIN
 40
1.5
 40
1.5
 40
1.5
 40
1.5
 40
1.5
 40
1.5
309
CELLMARGIN_END
 94
        6
 95
        1
302
GRIDFORMAT
  1
GRIDFORMAT_BEGIN
 90
        0
 91
        1
 62
     0
 92
       -2
340
14
 93
        0
 40
0.045
309
GRIDFORMAT_END
 95
        2
302
GRIDFORMAT
  1
GRIDFORMAT_BEGIN
 90
        0
 91
        1
 62
     0
 92
       -2
340
14
 93
        0
 40
0.045
309
GRIDFORMAT_END
 95
        4
302
GRIDFORMAT
  1
GRIDFORMAT_BEGIN
 90
        0
 91
        1
 62
     0
 92
       -2
340
14
 93
        0
 40
0.045
309
GRIDFORMAT_END
 95
        8
302
GRIDFORMAT
  1
GRIDFORMAT_BEGIN
 90
        0
 91
        1
 62
     0
 92
       -2
340
14
 93
        0
 40
0.045
309
GRIDFORMAT_END
 95
       16
302
GRIDFORMAT
  1
GRIDFORMAT_BEGIN
 90
        0
 91
        1
 62
     0
 92
       -2
340
14
 93
        0
 40
0.045
309
GRIDFORMAT_END
 95
       32
302
GRIDFORMAT
  1
GRIDFORMAT_BEGIN
 90
        0
 91
        1
 62
     0
 92
       -2
340
14
 93
        0
 40
0.045
309
GRIDFORMAT_END
309
TABLEFORMAT_END
  1
CELLSTYLE_BEGIN
 90
        1
 91
        1
300
_TITLE
309
CELLSTYLE_END
300
CELLSTYLE
  1
TABLEFORMAT_BEGIN
 90
        5
170
     1
 91
        0
 92
        0
 62
   257
 93
        1
300
CONTENTFORMAT
  1
CONTENTFORMAT_BEGIN
 90
        0
 91
        0
 92
        4
 93
        0
300

 40
0.0
140
1.0
 94
        5
 62
     0
340
11
144
4.5
309
CONTENTFORMAT_END
171
     1
301
MARGIN
  1
CELLMARGIN_BEGIN
 40
1.5
 40
1.5
 40
1.5
 40
1.5
 40
1.5
 40
1.5
309
CELLMARGIN_END
 94
        6
 95
        1
302
GRIDFORMAT
  1
GRIDFORMAT_BEGIN
 90
        0
 91
        1
 62
     0
 92
       -2
340
14
 93
        0
 40
0.045
309
GRIDFORMAT_END
 95
        2
302
GRIDFORMAT
  1
GRIDFORMAT_BEGIN
 90
        0
 91
        1
 62
     0
 92
       -2
340
14
 93
        0
 40
0.045
309
GRIDFORMAT_END
 95
        4
302
GRIDFORMAT
  1
GRIDFORMAT_BEGIN
 90
        0
 91
        1
 62
     0
 92
       -2
340
14
 93
        0
 40
0.045
309
GRIDFORMAT_END
 95
        8
302
GRIDFORMAT
  1
GRIDFORMAT_BEGIN
 90
        0
 91
        1
 62
     0
 92
       -2
340
14
 93
        0
 40
0.045
309
GRIDFORMAT_END
 95
       16
302
GRIDFORMAT
  1
GRIDFORMAT_BEGIN
 90
        0
 91
        1
 62
     0
 92
       -2
340
14
 93
        0
 40
0.045
309
GRIDFORMAT_END
 95
       32
302
GRIDFORMAT
  1
GRIDFORMAT_BEGIN
 90
        0
 91
        1
 62
     0
 92
       -2
340
14
 93
        0
 40
0.045
309
GRIDFORMAT_END
309
TABLEFORMAT_END
  1
CELLSTYLE_BEGIN
 90
        2
 91
        1
300
_HEADER
309
CELLSTYLE_END
300
CELLSTYLE
  1
TABLEFORMAT_BEGIN
 90
        5
170
     1
 91
        0
 92
        0
 62
   257
 93
        1
300
CONTENTFORMAT
  1
CONTENTFORMAT_BEGIN
 90
        0
 91
        0
 92
        4
 93
        0
300

 40
0.0
140
1.0
 94
        2
 62
     0
340
11
144
4.5
309
CONTENTFORMAT_END
171
     1
301
MARGIN
  1
CELLMARGIN_BEGIN
 40
1.5
 40
1.5
 40
1.5
 40
1.5
 40
1.5
 40
1.5
309
CELLMARGIN_END
 94
        6
 95
        1
302
GRIDFORMAT
  1
GRIDFORMAT_BEGIN
 90
        0
 91
        1
 62
     0
 92
       -2
340
14
 93
        0
 40
0.045
309
GRIDFORMAT_END
 95
        2
302
GRIDFORMAT
  1
GRIDFORMAT_BEGIN
 90
        0
 91
        1
 62
     0
 92
       -2
340
14
 93
        0
 40
0.045
309
GRIDFORMAT_END
 95
        4
302
GRIDFORMAT
  1
GRIDFORMAT_BEGIN
 90
        0
 91
        1
 62
     0
 92
       -2
340
14
 93
        0
 40
0.045
309
GRIDFORMAT_END
 95
        8
302
GRIDFORMAT
  1
GRIDFORMAT_BEGIN
 90
        0
 91
        1
 62
     0
 92
       -2
340
14
 93
        0
 40
0.045
309
GRIDFORMAT_END
 95
       16
302
GRIDFORMAT
  1
GRIDFORMAT_BEGIN
 90
        0
 91
        1
 62
     0
 92
       -2
340
14
 93
        0
 40
0.045
309
GRIDFORMAT_END
 95
       32
302
GRIDFORMAT
  1
GRIDFORMAT_BEGIN
 90
        0
 91
        1
 62
     0
 92
       -2
340
14
 93
        0
 40
0.045
309
GRIDFORMAT_END
309
TABLEFORMAT_END
  1
CELLSTYLE_BEGIN
 90
        3
 91
        2
300
_DATA
309
CELLSTYLE_END
  0
ENDSEC
  0
EOF
